» » »

Get Inside Bass tabs (ver.1)

Artists:  A B C D E F G H I J K L M N O P Q R S T U V W X Y Z # 

Get Inside Bass tabs (ver.1)

Stone Sour
Rating:
0/5 (0 votes)

Hard to play? Try these video lessons and learn fast.
                .: Intro :.

D|-------------------|               <-- Very Fast
A|-------------------|
E|-------------------|
B|0123-0123-0123-0123|               Listen to the song for how many times to play


.: Rif1 :.

D|-----------------------------------------|
A|-----------------------------------------|
E|-----------------------------------------|
B|0-000-5-0-00-1-0-1-0-0-000-5-0-00-1-0-1--|

.: Rif2 :.

D|------------------------------------------|
A|------------------------------------------|
E|------------------------5-6---------------|
B|00-000-00-0050-00-000-00---6-0------------|

.: Rif3 :.

D|-----------------------------------------|
A|-----------------------------------------|
E|-8-7-8-7-8-7/6-5\7-8-7-8-7-8-7-8-7-------|
B|-----------------------------------------|

.: Rif4 :.

D|----------------------|
A|----------------------|
E|----------------------|
B|--3-5-0-3-5-0-0-3-5---|

.: Rif5 :.

D|-------------|
A|-------------|
E|-------------|
B|-5650-1-0-1|

.: Rif6 :.

D|------------------------|
A|------------------------|
E|------------------------|
B|0123-0123-0123-0123-3-3-|


.: Structure :.

Intro x4
Rif1 x2
Rif2 x2
Rif3 x1
Rif4 x4
Rif1 x2
Rif2 x2
Rif3 x1
Rif4 x4
Rif5 x8
Rif1 x2
Rif2 x2
Rif3 x1
Rif4 x4
Rif6 x4
            
Hard to play? Try these video lessons and learn fast. | Correct




comments powered by Disqus
↑ Back to top | Tablatures and chords are parodies/interpretations of the original songs. You may use it for private study, scholarship, research or language learning purposes only