>
 >
Couldn't Stand The Weather

Couldn't Stand The Weather Guitar Tabs

Stevie Ray Vaughan - Couldn't Stand The Weather chords, tabs, tablatures, lyrics

Guitar lessons | Add/correct | Request | Top 50 tabs Artists:  A B C D E F G H I J K L M N O P Q R S T U V W X Y Z 0-9

Couldn't Stand The Weather Guitar Tabs – Stevie Ray Vaughan

CD, Sheet music, Poster

Do you like Couldn't Stand The Weather? Share with your friends now
Bass TabsBass Tabs v2ChordsChords v2Tabs
Stevie Ray Vaughan

Tuning: Half Step Down (Eb Ab Db Gb Bb Eb)


Eb|----------------------------------------------------------------||
Bb|--------------------10------------------------------------------||
Gb|----7-9p7----9/11-----9/10/9p7----9-----------------------------||
Db|--9--------9---------------------9------------------------------||
Ab|----------------------------------------------------------------||
Eb|----------------------------------------------------------------||


Eb|----------------------------------------------------------------||
Bb|----------------------------------------------------------------||
Gb|--7---7---------------------------------------------------------||
Db|----9-7h9-7-----------------------------------------------------||
Ab|-------------9-8-7---5/0----------------------------------------||
Eb|----------------------------------------------------------------||



Eb|--------------------------5-------------------------------------||
Bb|------------------------5-----8-5-------------------------------||
Gb|-----------------5-7b--------------7-7p5------------------------||
Db|------------5-7---------------------------7---------------------||
Ab|---3-5-6-7------------------------------------------------------||
Eb|-5--------------------------------------------------------------||



Eb|----------------------------------------------------------------||
Bb|----------------------------------------------------------------||
Gb|--5-------------------------------------------------------------||
Db|----5h7-5h7--5-7------------------------------------------------||
Ab|----------------------------------------------------------------||
Eb|----------------------------------------------------------------||



Eb|------------3---------------------------------------------------||
Bb|----------3---6-3-----------------------------------------------||
Gb|----3-5b----------5b-5p3---3h5-3----3---------------------------||
Db|--5-----------------------5-------5--3h5-3----------------------||
Ab|--------------------------------------------5-4-3-1-------------||
Eb|----------------------------------------------------------------||


                      whammy bar
Eb|--9---9--9------------------------------------------------------||
Bb|--10-10-10------------------------------------------------------||
Gb|--9--9--9-------------------------------------------------------||
Db|--8--8--8-------------------------------------------------------||
Ab|----------------------------------------------------------------||
Eb|----------------------------------------------------------------||



Eb|----------------------------------------------------------------||
Bb|-*------------------------------------------------------------*-||
Gb|----------------------------------------------------------------||
Db|----------------------------------------------------------------||
Ab|-*--5-3-5-------------3b1/4--5-3-5----------------------------*-||
Eb|------------1-3---4-5------------------2-3-4-5------------------||



Ebl--13-13-13-13-13-------------12b--------10----------------------||
Bb|-*--x--x--x--x--x----10-------12b--------10---------------------||
Gb|--10-10-10-10-10---10---x---12b--------10------------10/11------||
Db|-------------------------x---------------------12-x----9/10-----||
Ab|-*--------------------------------------------------------------||
Eb|----------------------------------------------------------------||



Eb|----------------------------------------------------------------||
Bb|---------------------------12---10--10b1/4----------------------||
Gb|--11-----------12--x--12--12---10--10b1/4-----------------------||
Db|--10-----------12--x--12--12------------------------------------||
Ab|----------------------------------------------------------------||
Eb|-------10-10----------------------------------------------------||



Eb|----------------------------------------------------------------||
Bb|----------------------------------------------------------------||
Gb|---------------------------------------------------10/11-----ll-||
Db|---12-10---------x--x--10-----10b1/4--12----------9/10----------||
Ab|----------12-12--x--x-------------------------------------------||
Eb|-------------------------------------------10-10----------------||



Eb|----------------------------------------------------------------||
Bb|---------12--12--12--12---------12--12--12--10--------------*---||
Gb|---------12--12--12--12---------12--12--12--10------------------||
Db|---------12--12--12--12---------12--12--12--10--12-10-----------||
Ab|-------------------------------------------------------------*--||
Eb|--10-10-------------------10-10---------------------------------||



Eb|----------------------------------------------------------------||
Bb|----------------------------------------10----------------------||
Gb|----------------------------------------10----------------------||
Db|-12h10-----10-----10---10-12---12-12-------x-x------------------||
Ab|--------12-----12---------------------------x-x-----------------||
Eb|----------------------------------------------------------------||



Eb|--------------------------------------------------------12--10--||
Bb|-12-10-------12---10---------12-10--------12-10-------12--10----||
Gb|-12-10--12---12---10----12--12-10--12----12-10---12--12--10-----||
Db|--------12---------------12---------12------------12------------||
Ab|----------------------------------------------------------------||
Eb|----------------------------------------------------------------||



Eb|----------------------------------------------------------------||
Bb|-*10--10-10--x-10-x-x-10-10-x-x-----------------------------*---||
Gb|--10--10-10--x-10-x-x-10-10-x-x---------------------------------||
Db|--10--10-10--x-10-x-x-10-10-x-x---------------------------------||
Ab|-*-x---------------------------------------------------------*--||
Eb|--10------------------------------------------------------------||



Eb|---7-------------7----------------------------------------------||
Bb|---7-------------7----------------------------------------------||
Gb|---7---------7---9------7h9---7b1/4-----9-----------------------||
Db|---9-------9-------------------------9----9-9-------------------||
Ab|---9-----9-----------------------------9----9---9---------------||
Eb|---7---------------------------------------------7--------------||



Eb|-----------------------------------------------------5----------||
Bb|------------5-----------------------5----------------5----------||
Gb|--------6---6-------------------6--6----------------6-----------||
Db|--------7---5-------------5--7----------------------------------||
Ab|--7--7------------7---7------------------7----------------------||
Eb|--5---------------------------------------5---------------------||



Eb|----------------------------------------------------------------||
Bb|----------------------------------------------------------------||
Gb|-------4-----------4--------------------------------------------||
Db|-----3-----/3------3----3---5---3-------------------------------||
Ab|---5-------/5---------------5-----------------------------------||
Eb|-3---------/3---------------------------------------------------||



Eb|----------------------------------------------------------------||
Bb|---x-10---10-----x-10---10--------------------------------------||
Gb|---x-9----9------x-9----9----------x----------------------------||
Db|---x-8----8------x-8----8----------x----------------------------||
Ab|---x-9----9------x-9----9-----------------5h7-------------------||
Eb|---------------------------------------5h7----------------------||



Eb|----13-13-13-13-13---10-----------------------------------------||
Bb|-*--x--x--x--x--x----10----------12b----------------------------||
Gb|----10-10-10-10-10---10----x-x---12b----------------------------||
Db|---------------------------x-x----------------------------------||
Ab|-*--------------------------------------------------------------||
Eb|----------------------------------------------------------------||



Eb|--10------------------------------------------------------------||
Bb|--10----------10----------------------------12---10b------------||
Gb|--10----------10---------x--------12--x--12-12---10b------------||
Db|-------12-12-------------x--------12--x--12-12------------------||
Ab|----------------------------------------------------------------||
Eb|------------------------------10--------------------------------||



Eb|----------------------------------------------------------------||
Bb|------------------------------------10-10-10-10-10-10-----------||
Gb|-------------x------10/12--12--10---10-10-10-10-10-10-----------||
Db|--12p10------x------10/12--12--10---10-10-10-10-10-10-----------||
Ab|---------12-----12--12/14--14--12---12-12-12-12-12-12-----------||
Eb|----------------------------------------------------------------||



Eb|----------------------------------------------------------------||
Bb|-------------------10-----------------------------------------*-||
Gb|--12p10-----12-----10-------------------------------------------||
Db|---------12-12----------12---10--10-10-10-10-11-12--------------||
Ab|--------------------------------------------------------------*-||
Eb|----------------------------------------------------------------||



Eb|-/12----12-12--12/14-14-14-14-13-13-13--------------------------||
Bb|-/12----12-12--12/14-14-14-14-13-13-13--------------------------||
Gb|-/12----12-12--12/14-14-14-14-13-13-13--------------------------||
Db|-/11----11-11---------------------------------------------------||
Ab|-/12----12-12---------------------------------------------------||
Eb|----------------------------------------------------------------||



Eb|--12------14p12------------14p12---12---------------------------||
Bb|--12------------12----12-----------12---------------------------||
Gb|--12------------------12-----------12---------------------------||
Db|------11--------------------------------------------------------||
Ab|----------------------------------------------------------------||
Eb|----------------------------------------------------------------||



Eb|-10-10-10----10-10-12--12--12--12-------------------------------||
Bb|-10-10-10----10-10-12--12--12--12-------------------------------||
Gb|-10-10-10----10-10----------------------------------------------||
Db|-9--9--9--------------------------------------------------------||
Ab|-10-10-10-------------------------------------------------------||
Eb|----------------------------------------------------------------||



Eb|--12p10----10-10----------10-10-10--10--------------------------||
Bb|--12p10----10-10----------10-10-10--10--------------------------||
Gb|-----------10-10----------10-10-10--10--------------------------||
Db|---------------------9----------9---9---------------------------||
Ab|---------------------10---------10--10--------------------------||
Eb|----------------------------------------------------------------||


wait for a few measures, then
Eb|----------------------------------------------------------------||
Bb|----------------------------------------------------------------||
Gb|----x-x--------------10-----------------------------------------||
Db|----x-x--12-12-12-12--------------------------------------------||
Ab|---------x-x----------------------------------------------------||
Eb|---------x-x----------------------------------------------------||



Eb|----------------------------------------------------------------||
Bb|----------------------------------------------------------------||
Gb|-----------------------------12-12b-----------------------------||
Db|--12p10---------10-x-12-x-x-------------------------------------||
Ab|---------12--x--------------------------------------------------||
Eb|----------------------------------------------------------------||



Eb|----------------------------------------------------------------||
Bb|---------------------------------------------x--12-12-12-13b----||
Gb|--12p10------------12---12-------------------x--12-12-12--------||
Db|--------12-------x-----------12p10------------------------------||
Ab|-----------12--x--------------------12--10----------------------||
Eb|----------------------------------------------------------------||



Eb|--10-----------------------10---------10------------------------||
Bb|-------13--10---------10--------13b-------13--10----------------||
Gb|---------------12b--------------------------------12-12-10b-----||
Db|------------------------------------------------------------12--||
Ab|----------------------------------------------------------------||
Eb|----------------------------------------------------------------||



Eb|----------------------------------------------------------------||
Bb|-----------------------12---------------------------------------||
Gb|-------10--10----------12---------------------------------------||
Db|-10-12-------12-10--------10b--12-------------------------------||
Ab|-------------------12-------------------------------------------||
Eb|------------------------------------x-x-19/10/1--3/-------------||



Eb|----------------------------------------------------------------||
Bb|--------------------------------13------------------------------||
Gb|--x-x-10--------------12-x-12b------12---10---------------------||
Db|--x-x------12p10------12-x-------------------12p10-------x-10-10||
Ab|------------------12-------------------------------12p10-x------||
Eb|----------------------------------------------------------------||



Eb|-----------------------------13---------------------------10----||
Bb|----------------------13--------------------------------10--10--||
Gb|----------------12b--------------------10--12p10----12----------||
Db|----10-12------------------------12b-------------12-------------||
Ab|-12-------------------------------------------------------------||
Eb|----------10-x--------------------------------------------------||



Eb|--------10--10--------10------12-10h12p10------10--13b----------||
Bb|-13b------10--------10--13b10-------------13b----10-------------||
Gb|--------------12b-----------------------------------------------||
Db|----------------------------------------------------------------||
Ab|----------------------------------------------------------------||
Eb|----------------------------------------------------------------||



Eb|-13--13-10-------10---------------------------------------------||
Bb|---------------10--13p10----------------------------------------||
Gb|-----------12------------12b---10--10---------------------------||
Db|---------------------------------12-----10h12-12-10-12----------||
Ab|----------------------------------------------------------------||
Eb|----------------------------------------------------------------||



Eb|--------------10------------------12b10b---------------10--19/--||
Bb|----x/12-10-12--10-12v-10----------------12v----12v-12-----19/--||
Gb|----x--------------------11-9bp7---------------------------19/--||
Db|----------------------------------------------------------------||
Ab|----------------------------------------------------------------||
Eb|----------------------------------------------------------------||



Eb|--12b-11b--10-----------10-----12b--10b--12--10--12b-10b-10-----||
Bb|-------------12-12-12-12--12-12-----10b--12---------------------||
Gb|----------------------------------------------------------------||
Db|----------------------------------------------------------------||
Ab|----------------------------------------------------------------||
Eb|----------------------------------------------------------------||



Eb|---------12b-12v-12b-12b-12b-10---10--------7-------------------||
Bb|-12-12-12----------------12b---12---12p10s7--7-10---------------||
Gb|----------------------------------------------------------------||
Db|----------------------------------------------------------------||
Ab|----------------------------------------------------------------||
Eb|----------------------------------------------------------------||



Eb|--7-----------------------------------3-------------------------||
Bb|---10-7------------------------------3-3-6bv--------------------||
Gb|-------9b-9-7b-------------------5b-----------------------------||
Db|---------------9-7-------------5--------------------------------||
Ab|-------------------9/----------3--------------------------------||
Eb|------------------------0-2/3-----------------------------------||



Eb|--3---------3--3------------------------------------------------||
Bb|---6-3-----3-6-3------------10-10--10--10-x-10-x-10-x-10-x-10---||
Gb|-------5b--------5b-hp3-----9--9---9---9--x-9--x-9--x-9--x-9----||
Db|------------------------5---8--8---8---8--x-8--x-8--x-8--x-8----||
Ab|--------------------------x-9--9-x-9-x-9--x-9--x-9--x-9--x-9----||
Eb|--------------------------x-------------------------------------||



Eb|--------------------10------------------------------------------||
Bb|------------------10--13----13-13-13----------------------------||
Gb|------------x-12b-------12b----12-10----------10----------------||
Db|--12p10-----x------------------------12-10-12-10----------------||
Ab|-------12-12-------------------------------------12-11-10h12p10-||
Eb|----------------------------------------------------------------||



Eb|---------------------------13-13-13-13-13---10------------------||
Bb|---------------12-10-------x--x--x--x--x----10--12--------------||
Gb|---------------12-10---10--10-10-10-10-10---10--12--------------||
Db|------10-12--12-----12-10---------------------12----------------||
Ab|----------------------------------------------------------------||
Eb|-13p10-----10---------------------------------------------------||



Eb|------10---x----------------------------------------------------||
Bb|----10--10-x----------------------------------------------------||
Gb|--10----10-x--------------5-------------------------------------||
Db|-x---------x-------3-5-5s7-7/5p3-5-3-5-3------------------------||
Ab|-----------x----3-5-------------5---5---5-3trill----------------||
Eb|------------2/5-------------------------------------------------||





Comments


Popular Stevie Ray Vaughan tabs & chords
All Your Love I Miss Loving Bass Tabs
Life By The Drop Bass Tabs
Life Without You Chords
Aint Gonna Give Up On Love 1 Tabs
All Your Love Tabs
Compilation Tabs
Crossfire (Solo) Tabs
May I Have A Talk With You Tabs
Rude Mood Tabs
Tightrope 2 Tabs


Song lyrics



↑ Back to top | Tablatures and chords are parodies/interpretations of the original songs. You may use it for private study, scholarship, research or language learning purposes only
© 2014 AZChords.com Contact us | Privacy policy | DMCA | Add/correct tabs | Request tabs | Top 50 tabs