>
 >
Little Wing

Little Wing Guitar Tabs

Stevie Ray Vaughan - Little Wing chords, tabs, tablatures, lyrics

Guitar lessons | Add/correct | Request | Top 50 tabs Artists:  A B C D E F G H I J K L M N O P Q R S T U V W X Y Z 0-9

Little Wing Guitar Tabs – Stevie Ray Vaughan

CD, Sheet music, Poster

Do you like Little Wing? Share with your friends now
TabsTabs v2Tabs v3
Artist-Stevie Ray Vaughan
Song-Little Wing
Album-The Sky is Crying
Tuning-Half Step Down Eb Ab Db Gb Bb Eb

|------------------|-------------12\-----|---------------------|
|------------------|-------------12\-----|-----------x--x------|
|------------------|----------x--12\-----|-----------x--x------|
|------------------|----------x----------|-----------x--x------|
|------------------|---------------------|--------------x------|
|------------------|---------------------|--0------------------|


                                                       
---------------------------|-----------3h5p-3--3------|
------------5----5---------|-------------3-----3------|
----------5h7----5---------|-------------0----------4h|
--------5----------5h7\----|--------------------------|
--5h-7---------------------|---------x----------------|
-------------------------2/|--3------3------------3---|


                                                       
-------------------------|----------------------------|
--3----3--3-----3--------|---------5------------------|
--5----5--4h-5--4--------|-----------5--------------5h|
-------------------5-----|-------------x-------5------|
-------------------------|---------------5--7---------|
----------------------3/-|--5---------------------0---|


                                                           
-------------------------------|-----------3h5--3--3------|
--5--5--------------5----------|-------------3--3---------|
--7--5------5-------5-------5--|-------------0--0-----0---|
-------5h7--7-------5-------5--|----------------------0---|
---------------5h-7----5h-7----|------------------------5/|
-------------------------------|--0------0----------------|


                                                       




--------------------------|-------------7h9--9h-10-7--|
-----------5-----5--------|---------------7--------7--|
-----5--5--5-----5--------|---------------------------|
-----5--7--8\-7--5--------|---------------------------|
--7-----------------7-----|---------------------------|
-----------------------5/-|--7------------------------|


                                                       
------7\------------6-----|--5------------------------|
--10b-7\------------6-----|--5------------------------|
--------------------------|--5----5----5-----5--------|
--------------------------|-------7----7--7--5h7p5----|
--------------------------|------------------------7--|
------------5/6--6-----0--|---------------------------|


                                                               
------------------------------------|-----------5/7---7\5-----|
--5---------------------------------|-----------3/5---5\3-----|
--5h7p5-----5--5--------------------|-----------4/6---6\4-----|
--------7-5h7--5--------5-----------|-----------5/7--------5--|
------------------5h-7-----5h-7--7--|-------------------------|
------------------------------------|--3------3------------3--|


                                                        
--5\-3-----3------3-------|----------------------------|
--3\-1-----1------1-------|----------------------------|
--4\-2-----2------2----0--|-------------5-----------5--|
-----------3-----------0--|---------------5------------|
--------------------------|--3----3--3------3-3--3-----|
--------1-----------------|----------------------------|


                                                               
------------------------------|-------------------------------|
------------------------------|-------------------------------|
--5/-7----------7-------------|--7--7--7--7--7------------7---|
------------------7----7----7h|--9--9--7-------------7----7---|
--3/-5----5--5------5--5------|--------------10--10--7----7-7h|
--------------------------0---|-------------------------------|


                                                                                
-------------------|------------------------|----------------------------------|
-------------------|------------------------|----------------------------------|
--7----------------|------------------------|----------------------------------|
--7----------------|------------------------|--0h2p0h2p0h2p0h2p0h2p0h2p0h2p0h2p|
--9----------------|---------------0--0-----|----------------------------------|
-------------------|------------3--------3--|----------------------------------|


                                                      
--0-------------------------|------------------------|
----------------------------|------------------------|
----------------------------|------------------------|
--0h2p0h2p0h2p0h2p0---------|-----------------5----5h|
----------------------------|------------5/7-----7---|
-------------------------0--|--3---------------------|


-----------------------------|------------5--7--5h7p5----|
-----------------------------|------------5--5--5-----8b-|
--5------5------5--5---------|---------------------------|
--7--7-5h7--7-5h7--5---5--5--|---------------------------|
---------------------5h7--5--|---------------------------|
-----------------------------|--5------5-----------------|


                                                                
--5-----5--------5---------------------|-----------------------|
--5--8--5-----5-----8--8---------------|-----------------------|
-----------7b----------7b-7--5---------|-----------------12----|
--------------------------------7------|-----------12----------|
-----------------------------------5h7-|-----------------------|
---------------------------------------|--0--------------------|


                                                    
------12----------------|-------------7---------7--|
--12------------x-------|-------------7--10--7-----|
----------------x-------|--------------------------|
------------------------|--------------------------|
------------------------|--------------------------|
-------------------0/---|--7-----------------------|


                                                                 
--9--8p-7---------7--------------------|--------0---------------|
-----------10b-7-----10----------------|--------0---------------|
------------------------9h10--9--7b----|--------0-------------5h|
------------------------------------9\-|-----------------5------|
---------------------------------------|-----------5--7-----7---|
---------------------------------------|------------------------|


                                                        
-----------------------------|---------5-5/7---7\5-----|
-----5-----5-----------------|---------3-3/5---5\3-----|
--7--7--5--5---5--5----------|-----------4/6---6\4-----|
-------------5h7--7-------5--|-----------5/7--------5--|
--------------------5h7-5h7--|-------------------------|
-----------------------------|--3------3---------------|


                                                         
--5\-3-----3------3--------3--|-------------------------|
--3\-1-----1------------1-----|-------------------------|
--4\-2-----2---------2--2-----|-------------5---------5/|
--------3------------3--------|-------------5----5----5/|
------------------------------|--3----3--3-------3--3-3/|
------------------------------|-------------------------|


-------------------------|----------------------------|-------------------|
-------------7-----------|----------------------------|-------------------|
--7----------7----7------|--7----7--7-----------------|--7----------------|
--7----7-----7----7--7-7h|--9----7--7--7-------7------|--7----------------|
--5----5--5----------0---|-------------10--10--7--7-7h|--9----------------|
---------------------0---|-------------0--------------|-------------------|


--------------------------|------------------------------------|
--------------------------|------------------------------------|
------------------12--14b-|--14--12h-14~---12------------14~---|
------------14------------|--------------------14--14----14~---|
--------------------------|------------------------------------|
--------------------------|------------------------------------|


                                                      
----------------------------|------------------------|
----------------------------|------------------------|
----------------------------|------------------------|
------------12--------------|------------------------|
----------------14--13--12--|----------------10--12--|
----------------------------|------------12----------|


                                                                               
-------------------------------------|----------------------------------------|
-------------------------------------|----------------------------------------|
-------------------------------------|----------------------------------------|
----------12--------x----------------|----------------------------------------|
--13/-14------12---------10--12--10/-|--14--12/-14--12/-14--12/-14--13--12~---|
-------------------------------------|----------------------------------------|


                                                 
------------------------------------------------|
------------------------------------------------|
--------------------------12--14b---14--12------|
--------------12h-14------------------------14--|
--10--12--10------------------------------------|
----------------------12------------------------|


                                                                            
----------------------------------------|----------------------------------|
--15------------------------------------|----------------------------------|
------14b---14--12b---12----------------|--14~-----------------------------|
--------------------------14------14----|----------12----------------------|
----------------------------------------|--------------14--13--12--10------|
------------------------------12--------|----------------------------------|


                                                                 
----------------12--12--|--12--12--------12---------------------|
------------------------|----------14~---12---------------------|
----------------12--14b-|--14--12--14~---12-14p12-14--12--14b---|
------------14----------|-----------------------------12--------|
------------------------|---------------------------------------|
------------------------|---------------------------------------|


------12------------------------------------|
--12------12--15----------------------------|
------------------14b-12--14--12------12~---|
----------------------------------14--------|
--------------------------------------------|
--------------------------------------------|


----------------------------------------------|
----------------------------------------------|
----------------------------------------------|
--14p-12~-----------------------------12--14--|
----------14--13--12----10--12/-14------------|
----------------------------------------------|


                                                                              
----------------------------------------|------------------------------------|
------------12--12----------------------|------------------------------------|
--12/14-14--12--12----------12----------|------------------------------------|
--------------------12h-14--14--12--12--|----------------------------12~-----|
----------------------------------------|------12/14---12/14---13----12~-10--|
----------------------------------------|------------------------------------|


                                                                             
--------------------------------|-------------------------------------------|
--------------------------------|-------------------------------------------|
--------------------------------|-------------------------------------------|
--------12----------------------|-------------------------------------------|
--12/14-----12~-----12--10------|--10--12--12/-13--10--12~-----10h12p10-----|
----------------------------12--|---------------------------------------12--|


                                                                      
------------------------------------|--------------------------------|
------------------------------------|----------------------------15--|
------------------12----------------|----------12------14--12--------|
--------------12--------12h---14----|----14--------14------------12--|
--10--12h-14------------------------|----------10------12--10--------|
------------------------------------|----12--------12----------------|


                                                                              
----------------------------------|------------------------------------------|
----------------------------------|------------------------------------------|
------------12--14------14--14-12/|--14--14-12/14--14-14\12--12--------------|
--------14----------14------------|-----------------------------12/14--14-12/|
------------10--12------12--12-10/|--12--12-10/12--12-12\10--10--------------|
--------12----------12------------|-----------------------------10/12--12-10/|


                                                               
------------------------------|------------14/15--15--15--15--|
------------------------------|-------------------------------|
------12----------------------|------------11/12--12--12--12--|
--14------14--12/-14----------|-------------------------------|
------10----------------------|-------------------------------|
--12------12--10/-12----------|-------------------------------|


                                               
--15--15--15--15--15--15--12------------------|
--------------------------12----------14------|
--12--12--12--12--12--12--12----14----14------|
------------------------------------------14--|
----------------------------------------------|
----------------------------------------------|


                                                   




----------17--------------22----------------------|
--12------------------------------------------12--|
--12--14--14--14\-12------19--15--14\-12------12--|
----------------------14------------------14------|
--------------------------------------------------|
--------------------------------------------------|


                                     
------------------------------------|
--------15--15/-17--17--------------|
------------------------------------|
--14----12--12/-14--14------14------|
------------------------------------|
------------------------12------12--|


                                             
--------------------------------------------|
--------------------------------------------|
----------12--------------------------------|
--14----------14~---14p-12------------------|
----------------------------14\-12h-13p-12--|
------12------------------------------------|


                                                                   
----------------------------------------|-------------------------|
----------------------------------------|-------------------------|
--------------------12------------------|-------------------------|
----------12--14~-------14p12h14--12----|---------------------14--|
-------------------------------------14-|------x--x--x------------|
--15--12--------------------------------|--12/--------------------|


                                                  
--12--12--12--------------15---------------------|
------------------x---12--15------------------12-|
--12--14--14h-15--14--12-----14r-12----12/14b----|
------------------------------------14-----------|
-------------------------------------------------|
-------------------------------------------------|


--12---------------------------------------x~--|
-----15-12---------------------------------x~--|
-----------14/16-12h14~--12h14p12----12----12~-|
----------------------------------14-----------|
-----------------------------------------------|
-----------------------------------------------|


                                                                         
----------------------------------------|--------15--15------15---------|
----------------------------------------|--------15--15------15--15-----|
------------------------------------x---|--14b-----------14r-----14b-0--|
--14p-12----------------------------12--|----------------------------0--|
----------14--13--12~---10--12/-14------|----------------------------0--|
----------------------------------------|-------------------------------|


                                                                 
--------13--13--13\-----------|---------------------------------|
--------13--13--13\-----------|------8--8---------8------8------|
--12b-----------12b----17-----|--9---9--7h9p7-9---7------7--9---|
---------------------------0--|--10-----------10-----10-----10--|
--------------------0------0--|--0------------------------------|
------------------------------|---------------------------------|


                                          
--------------------10------10-----------|
--------------------10--10--10-------10--|
--------------------11--12--11h12p11-11--|
--10/-12----12--12--12---------------12--|
-----------------------------------------|
--8/--10----10--10-----------------------|


                                                               
--10------10-------------10--10---------|-----12--------------|
--10--10--10-------10----10--10--10--0--|-----12--------------|
--11--12--11h12p11-11-11h12--11--11--0--|-----12--------------|
--12---------------12------------12-----|--0--12--------------|
----------------------------------------|--0------------------|
----------------------------------------|--0------------------|


                                           
--0-----------------|---------------------|
--0--------------0--|--15b-------------0--|
--0--------------0--|------------------0--|
--0-----------------|------------------0--|
--0-----------------|---------------------|
--0-----------------|---------------------|


                                                                          
----------------------------------12--|----------------------12----------|
--15b---15b---15b-15--12------12------|--------------------------15--15--|
--------------------------14b---------|--14r-12----14b---------------14b-|
--------------------------------------|---------14-----------------------|
--------------------------------------|----------------------------------|
--------------------------------------|----------------------------------|


--------------x~---------------------|
--------------x~---------------------|
--14p-12------12~--------------------|
----------14--------14\--------------|
-------------------------------------|
--------------------------0/---12----|


                                               
----------------------------------------------|
------------------------------------------15--|
--12--14--14b-12h14~--12h14p12----12--14------|
-------------------------------14-------------|
----------------------------------------------|
----------------------------------------------|


                                         
--------15------------------------------|
--------15------------------------------|
--14b---14b---14r---12----14~-----------|
--------------------------------14--12--|
----------------------------------------|
----------------------------------------|


                                                
-----------------------------------------------|
----------12~----------------------------------|
----------12~----------------------------------|
--14----------14----12h14p-12------------------|
-------------------------------14--13-12h13p12-|
------12---------------------------------------|


                                                                   
----------------------12\---0---------|---------------------------|
----------------------12\---0---------|---------------------------|
----------------------12\---0---------|---------------------14b---|
----------12--14~-14~----------14--0--|--14b-12--14~--------------|
-----------------------------------0--|------x-----------0--------|
--15--12------------------------------|------------------0--------|


                                                                       
---------------------------|------------------------------------------|
------------0----------12--|--12h13-12h-13--12h-13--12h13-12------15b-|
--14\12-----0--14b---------|----------------------------------12------|
------------0--------------|------------------------------------------|
---------------------------|------------------------------------------|
---------------------------|------------------------------------------|


                                                              
-------------------------15--|--------15--15------15--15-----|
-----------15r---12------15--|--------15--15------15--15-----|
--------0------------14b-----|--14b-----------14r-----14b-0--|
--------0--------------------|----------------------------0--|
-----------------------------|-------------------------------|
-----------------------------|-------------------------------|


                                                                  
--------13--13----13\-----------|--------------------------------|
--------13--13----13\-----------|--8--8--8---------8------8------|
--12b----------12r12b----14-----|--7--9--7h9-7-----7------7------|
----------------------0---------|--------------10-----10-----10--|
----------------------0------0--|--------------------------------|
-----------------------------0--|--------------------------------|


                                          
--------------------10------10-----------|
--------------------10--10--10-------10-0-|
--------------------11--12--11h12p11-11-0-|
--10/-12----12--12--12---------------12--|
-----------------------------------------|

e------<12>-------0----------------------------------------------|
B------<12>-------0-------------0------15b17----0--15b17-15b17---|
G------<12>-------0-------------0---------------0----------------|
D--0---<12>-------0-----------------------------0----------------|
A--0--------------0----------------------------------------------|
E--0--------------0----------------------------------------------|


e--------------------12---------------------12-------------------|
B-15b17-15-12------12-------------------------15-15--------------|
G-------------14b16-----14b16-12----14b16--------14b16-----------|
D--------------------------------14------------------------------|
A----------------------------------------------------------------|
E----------------------------------------------------------------|

 
e-----------x-----------------------------------------------------|
B-----------x---------------------------------------------------15|
G-14p12----12v--------------12-14-14b16-12h14-12h14p12----12-14---|
D-------14-------14\-----------------------------------14---------|
A--------------------0/12-----------------------------------------|
E-----------------------------------------------------------------|


e--------15------------------------------------------------------|
B--------15------------------------------12v---------------------|
G-14b16--14b16-14b16-12-14---------------12v---------------------|
D--------------------------14-12---14---------14----12h14p12-----|
A------------------------------------------------------------14--|
E-------------------------------------12-------------------------|


e----------------------------12\0--------------------------------|
B----------------------------12\0--------------------------------|
G----------------------------12\0------------------------14b16---|
D-------------------12--14-14-------14-0--14b16-12-14------------|
A-13-12h13p12--------------------------0---------x-----0---------|
E--------------15-12-----------------------------------0---------|


e----------------------------------------------------------------|
B----------0----------12-12h13---12h13-12h13-12h13-12----15b17---|
G-14\12----0---14b16----------------------------------12---------|
D----------0-----------------------------------------------------|
A----------------------------------------------------------------|
E----------------------------------------------------------------|


e------------------------15-------15-15----------15--15----------|
B----15b17r15--12--------15-------15-15----------15--15----------|
G-0----------------14b16-----14b16-------14b16r14----14b16-0-----|
D-0--------------------------------------------------------0-----|
A----------------------------------------------------------------|
E----------------------------------------------------------------|


e-------13--13-----------13---\----------------------------------|
B-------13--13-----------13---\-----------8--8--8--------8---8---|
G-12b14---------12b14r12-12b14\----14-----7--9--7h9-7----7---7---|
D-------------------------------0---------------------10---10-10-|
A-------------------------------0----0---------------------------|
E------------------------------------0---------------------------|


e----------------10-----10------------10------10---------------10|
B----------------10-10--10-------10---10--10--10--------10-----10|
G----------------11-12--11h12p11-11---11--12--11h12p11--11--11h12|
D-10/12---12-12--12--------------12---12----------------12-------|
A----------------------------------------------------------------|
E--8/12---10-10--------------------------------------------------|

                 A.H    _1
e-10-------------------------------------------------------------|
B-10--10--0------12------0------------15b17---------0---15b17----|
G-11--11--0------12-----12-------0----------15b16---0------------|
D-----12------0--12-----12-------0------------------0------------|
A-------------0--------------------------------------------------|
E----------------------------------------------------------------|


e---------------------15----15-15-15-15-15-15-15-15-15-----------|
B--------12h15--------15-15-15-15-15-15-15-15-15-15-15-----------|
G-14b16--------14b16-----14-14-14-14-14-14-14-14-14-14-----------|
D----------------------------------------------------------------|
A----------------------------------------------------------------|
E----------------------------------------------------------------|


e-15-15-15-15----15-15-15-15-----15-15-15-15---15-15-15-15-------|
B-15-15-15-15----15-15-15-15-----15-15-15-15---15-15-15-15-------|
G-14b16----------14b16-----------14b16---------14b16-------------|
D----------------------------------------------------------------|
A----------------------------------------------------------------|
E----------------------------------------------------------------|


e------------------15---------------------------------------------|
B-15-------15--15--15--15---------15-15------15-15----------------|
G-14b16r14-12--14--14--12h14p12---12-14b16---14-12--12-16b19-14b16|
D------------------------------14-----------------14--------------|
A-----------------------------------------------------------------|
E-----------------------------------------------------------------|


e-------------------x--------0---0----0--------0-------------------|
B-------------------x-----0------0--3-0------0---------------------|
G--12----------12--12---------------------2b4-----2h3p2-0-----0-2/4|
D-----14-12-14---------14/---------------------------------2-------|
A----------------------------0-------------------------------------|
E------------------------------------------------------------------|


e----0---------------3-----5b6--3--5----3--------0-------------------|
B--3---3--3/5vv---------5------------------5p3-0---3p0------------2b4|
G------4------------------------------------------------3p2p0---0----|
D-------------------------------------------------------------2------|
A--------------------------------------------------------------------|
E--------------------------------------------------------------------|


e---0------------------------------------------------------------|
B-0---3p0-------------3------------------------------------------|
G---------3p2p0---2h4-4--4p2p0---2b3-2p0---2p0-------------------|
D---------------2--------------2---------2------2--0h2-----------|
A------------------------------------------------------2-1-0h1p0-|
E----------------------------------------------------------------|


e-----------------------------------------3-3-----3--3-----------|
B-----------------------------------------3-3-3---3--3-----------|
G--------------------------------------2b4--2-2b4----3/12-12b14--|
D----------0-----------------------------------------------------|
A------1h2----0--1p0----0-----0h2--0-----------------------------|
E--3p0---------------3-----3-------------------------------------|


e-13-13-13---\---------------8--8------8--8---------10-10------10-10--|
B-13-13-13---\---------------8--8--8---8--8---------10-10-10---10-10--|
G-------12b14\----17----7b9--------7b9----7--9--9b11-------9b11----9-7|
D--------------0-----0------------------------------------------------|
A--------------0-----0------------------------------------------------|
E---------------------------------------------------------------------|

					    ____1
e-----7-----------------------------------------------------------|
B-----7-----7------7-----7--7--0---<12>---------------------------|
G-7---7--7--7--7---7--7--7--7--0---<12>-----0--------x------------|
D-7h9----7-----7------7-----9------<12>-----0--------x------------|
A--------------10------------------<12>-----0--------x------------|
E-------------------------------------------0---------------------|

    7 times    here is that written out.
e-------------|--------------------------------------------------|
B-------------|--------------------------------------------------|
G-------------|12------------------------------------------------|
D12h14ph12h14p 12h14p12h14 p12h14p12h14p 12h14p12h14p 12h14p12h14|
A-------------|--------------------------------------------------|
E-------------|--------------------------------------------------|


e----------------------------------------------------------------|
B----------------------------------------------------------------|
G--------------------------------12------------------------------|
D12h14p12h14p 12h14p12h14p-12h14p12------------------------------|
A--------------------------------------14---13--12---------------|
E----------------------------------------------------------------|


e-------------------------------------------------------------------------|
B-------------------------------------------------------------------------|
G-x----------------------------14b16-14-12--14----------------------------|
D---x-----------------12/14--------------------14--12---------------------|
A-----x-----10--12/14---------------------------------14-13-12----12-13-14|
E-------12------------------12---------------------------------15---------|


e----------------------------------------------------------------|
B----------------------------------------------------------------|
G----------------------------------------------------------------|
D----------------------------------------------------------------|
A-12h14p12h14p12h14p12h14p 12h14p12h14p12h14p12h14p--------------|
E----------------------------------------------------------------|


e----------------------------------------------------------------|
B----------------------------------------------------------------|
G----------------------------------------------------------------|
D----------------------------------------------------------------|
A-12h14p12h14p12h14p12h14p--12h14p12h14p12h14p12h14p-------------|
E----------------------------------------------------------------|


e----------------------------------------------------------------|
B----------------------------------------------------------------|
G----------------------------------------------------------------|
D--12h14p12h14p12----------------12h14p12h14p12h14p12h14-12------|
A-----------------12h14p12h14p12---------------------------------|
E----------------------------------------------------------------|


e----------------------------------------------------------------|
B----------------------------------------------------------------|
G----------------------------------------------------------------|
D----------------------------------------------------------------|
A-12h14p12h14p12h14p12h12p14p 12h14p12h14p12h14p12h14p-----------|
E----------------------------------------------------------------|


e----------------------------------------------------------------|
B----------------------------------------------------------------|
G----------------------------------------------------------------|
D----------------------------------------------------------------|
A-12h14p12h14p12h14p12h14p 12h14p12h14p12h14p12h14p--------------|
E----------------------------------------------------------------|


e----------------------------------------------------------------|
B----------------------------------------------------------------|
G----------------------------------------------------------------|
D----------------------------------------------------------------|
A-10h12p10h12p10----------------10h12p10h12p10h12/14-------------|
E----------------10h12p10h12p10----------------------------------|


e----------------------------------------------------------------|
B---------------------------------------12vvvv-------------------|
G-------------------------------------------------------12-------|
D-12h14p12h14p 12h14p12h14p12h14p12h14----------14\9/14----14----|
A----------------------------------------------------------------|
E----------------------------------------------------------------|


e--12-----12---------12-------------------------12----------------|
B--------------------------------------------12-----15p12---------|
G--15--12-14---12--------15-14--12------14b16-------------15p14p12|
D-----------------14---------------14-----------------------------|
A-----------------------------------------------------------------|
E-----------------------------------------------------------------|


e----------------------------------------------------------------|
B-----15-----------------------15--------------------------------|
G---------15p14p12----12h14h16----16\12-----15/16\14---14--12----|
D-14---------------14--------------------14----------14----------|
A----------------------------------------------------------------|
E----------------------------------------------------------------|

							
e----------------------x-----------------------------------------|
B------------------------x---------------------------------------|
G-------------------14--------12-----------------------------<12>|
D-14p12-------12------------------14p12----------------------<12>|
A-------13/14----14---------------------14-12h13p12-10-12/14-----|
E----------------------------------------------------------------|

                    ____1
e-------------------------------------------------------------------------|
B------------------<12>---------------------------------------------------|
G------------------<12>---------------------------------------------------|
D------------------<12>--12h14p12h14p12h14p12h14p 12h14p12h14p12h14p12h14p|
A-12h13p12-----12--<12>---------------------------------------------------|
E----------15-------------------------------------------------------------|


e----------------------------------------------------------------|
B----------------------------------------------------------------|
G----------------------------------------------------------------|
D-12h14p12h14p12h14p12h14p 12h14p12h14p12h14p12h14p--12h14p12h14-|
A----------------------------------------------------------------|
E----------------------------------------------------------------|

e----------------------------------------------------------------|
B----------------------------------------------------------------|
G14--12--14--12/14--14--12--14--12------12-----------------------|
D-----------------------------------14---------------------------|
A----10--12--10/12--12--10--12--10------10-----------------------|
E12---------------------------------12---------------------------|


e------------------------------------------------------------------|
B----------------------------------14--------------------14--------|
G-14------12------14------14-------12------14/15\14--12--14------12|
D-----14------14--12--14--12---14------14--------------------14----|
A-12------10------12------12-------12------12/13\12--10--12------10|
E-----12------12------12-------12------12--------------------12----|


e----------------------------------------------------------------|
B----------------------------------------------------------------|
G-14------12/14--------12------14--14---------12----14-14--------|
D-----14----------14-------14---------14-14---10-14-12-12--14----|
A-12------10/12--------10------12--12---------10----12-12--------|
E-----12----------12-------12---------12-12------12--------12----|


e----------------------------------------------------------------|
B------------------------------------------------------------12--|
G----14-12------14------12/14-------12/14-15-14\13-------14--12--|
D-14--------14--12--14---------14--------------------14----------|
A-------10------12------10/12-------10/12-13-12\11-------12------|
E-12--------12------12---------12--------------------12----------|


e----------------------------------------------------------------|
B---------12----14----12-------------------12-------------15/17--|
G---------12----14----12-------------------12--------------------|
D-14--14--------14----------------12/14--------------------------|
A----------------------------------------------14p13p12----------|
E------------12-----------12---12--------------------------------|


e------15vv--17b19--15b17---15---------15-----17/18--------------|
B--17--15vv---------------------17--17----17---------------------|
G----------------------------------------------------------------|
D----------------------------------------------------------------|
A----------------------------------------------------------------|
E----------------------------------------------------------------|


e17p15--17--------------------19-17-19-15------------------------|
B-----17--15--17-15-----17--18------------17----------15---------|
G------------------16/18---------------------14p12-------14b15r14|
D--------------------------------------------------14------------|
A----------------------------------------------------------------|
E----------------------------------------------------------------|


e----------------12-----------------------------------------------|
B--------------12--15p12-------------15-------------------------15|
G-12---12-14b16---------15p14p12--------14b16r14-12-----12h14b16--|
D----14--------------------------14------------------14-----------|
A-----------------------------------------------------------------|
E-----------------------------------------------------------------|


e----------------------------------------------------------------|
B----------------------------------------------------------------|
G-14b16r14-12----12---------------x------------------------------|
D-------------14----14-----------12------------------------------|
A-----------------------10h12/14-----14p12p10--------------------|
E----------------------------------------------12----------------|



e---------------------------------------------------------x-------|
B---------------------------------------------------------x-------|
G------------------------------------------------------12v--------|
D---------------------------------------------12-14-14------------|
A-10-12/14\12-10---10h12--10h12p10---10-12/14---------------------|
E----------------12----------------12---------------12------------|


e----------------------------------------------------------------|
B--------------------------------------12------------------------|
G-----------------------14b16r14-12-14-12------------------------|
D-14p12----12h14--14-----------------------14p12-----12--14------|
A-------14----------------------------------------14-------------|
E-----------------12-12------------------------------------------|


e-----------------------------------------------------------------|
B-----<12>---------------------15b17-------15-15----14------------|
G-----<12>-------------0------------------x---14b16-15p12-----x---|
D-----<12>-------------0----------------------------------14-12/14|
A-----<12>-------------0------------------------------------------|
E-0---<12>-------------0------------------------------------------|


e-------------------------------------15--15--15-----------15-----15--|
B--12--14b15r14---12-------12---------15--15--15-----------15--15-15--|
G--12--14b16r14---12-------12--14b16------14--14--14b16r14-12---------|
D----------------------14--------------------------------------14-14--|
A---------------------------------------------------------------------|
E---------------------------------------------------------------------|


e-----15-------15-----------------15--15-------------------------|
B-15--15----15-15-15--15--15--15--15--15-------------------------|
G-12--14b16----14-12----------12--14b16-----12/14v---12h14---12--|
D---------------------14--14-------------------------------------|
A----------------------------------------------------------------|
E----------------------------------------------------------------|


e----------------------------------------------------------------|
B--------------------------------x------------x--------12------x-|
G-12h14-12----------------------12-------12--12--------12--x---x-|
D-----------14---12h14p12h14p12-12----12h14--14--12h14-14--12-12-|
A----------------------------------------------------------------|
E----------------------------------------------------------------|


e------------------------0--0--0--------0-----------------------------|
B---------------------0--0--0--0-----0--0---3--------------2--0-------|
G---------------------0--------0--2b4---------2b4r2--0-----2--0h2p0---|
D--------12h14\-----------------------------------------2-----------2-|
A-----------------2-------------------------------------2-------------|
E-15---15---------0---------------------------------------------------|


e---------------------7-9-7h9p7------7--------------------------------|
B---------------------7---7----10vv--7--10-10---10-7-------7----------|
G-------------------------------------------9b11-9-7----7v-7----------|
D-----------------------------------------------------9----7-7h9p7----|
A-5/7--7-----------------------------------------------------------9--|
E---------5/7---7--7-----------------------------------------------x--|


e-------------5--5--5----------5--8--5--5---------0-------------------|
B-------------5--5--5-------5--5--8--5--5--8b10---0------0------------|
G-----------------------7b9-----------------------0--1/2-0--2b4-------|
D-------7--7---------------------------------------------0------------|
A-7--0--0--0----------------------------------------------------------|
E-5-------------------------------------------------------------------|


e-3--------3--------------13-13----13\0----------0---------------|
B-3--3-3---3--3-----------13-13----13\0----------0---------------|
G----2-2b4----2/12--12b14----12b14-12b14r12--17\-0---------------|
D---------------0------------------------------------------------|
A----------------------------------------------------------------|
E----------------------------------------------------------------|


e------8---8--------8--8---------------10---10-----------10--10-------|
B------8---8--8-----8--8---------------10---10--10-------10--10-------|
G-7b9---------7b9r7----7b9r7-----9b11-------9----9b11r9-------9b11r9--|
D---------------------------------------------------------------------|
A------------------------------0--------------------------------------|
E------------------------------0--------------------------------------|

				     ______2.5
e--------------------------------------<12>----------------------|
B---------7-----7----------------------<12>----------------------|
G------7--7--7--7--7----7-----7----7---<12>----------------------|
D----7h9-----7--7--7----7--7--7----7---<12>----------------------|
A-0----------------10--10--7--7--7h9---<12>--------------0-------|
E-0------------------------------------<12>--------------0-------|


e----------------------------------------------------------------|
B----------------------------------------------------------------|
G----------------------------------------------------------------|
D-12h14p12h14p12h14p12h14p 12h14p12h14p12h14p12h14p--------------|
A----------------------------------------------------------------|
E----------------------------------------------------------------|


e----------------------------------------------------------------|
B----------------------------------------------------------------|
G-12-------------------------------------------------------------|
D-12h14p12h14p12h14p12h14p 12h14p12h14p12h14p12h14p--------------|
A----------------------------------------------------------------|
E----------------------------------------------------------------|


e----------------------------------------------------------------|
B----------------------------------------------------------------|
G------------------------x---------------------------------------|
D------------------------x--12h14p12h14p12h14p12h14--------------|
A--12h14p12h14p12h14p12h14p--------------------------------------|
E----------------------------------------------------------------|


e----------------------------------------------------------------|
B----------------------------------------------------------------|
G-----------------------x----------------------------------------|
D-----------------------x--12h14p12h14p12h14p12h14p--------------|
A-12h14p12h14p12h14p12h14p---------------------------------------|
E----------------------------------------------------------------|





Comments


Popular Stevie Ray Vaughan tabs & chords
Lenny Bass Tabs
Riviera Paradise Bass Tabs
Couldnt Stand The Weather Intro Tabs
Crossfire (Solo) Tabs
Honey Bee 1 Tabs
Pride And Joy 4 Tabs
Telephone Song Tabs
Tin Pan Alley Tabs
Traffic Jam Tabs
Voodoo Chile 1 Tabs


Song lyrics



↑ Back to top | Tablatures and chords are parodies/interpretations of the original songs. You may use it for private study, scholarship, research or language learning purposes only
© 2014 AZChords.com Contact us | Privacy policy | DMCA | Add/correct tabs | Request tabs | Top 50 tabs