» » »

Stevie Ray Vaughan, Tightrope Tabs (ver.1)

Artists:  A B C D E F G H I J K L M N O P Q R S T U V W X Y Z # 

Tightrope Tabs (ver.1)

Stevie Ray Vaughan Tabs
 Rating:
4/5 (4 votes)
Tightrope lessons Tabs too difficult? Try these video lessons and learn fast
                Artist-Stevie Ray Vaughan
Song-Tightrope
Album-In Step
Tuning-Half Step Down Eb Ab Db Gb Bb Eb

E|-------------------------------------------------------------<--R-
B|--------------------------4--4-----2-------------------------<--E-
G|--------------------------4--4-----2-------------2h3p2p0-----<--P-
D|-------6--9---------------4--4-----2-------2--2----------2p0-<--E-
A|---7-----------5-(0)--2---2--2-----0-------2--2--------------<--A-
E|---------------------------------------3---0--0--------------<--T-
        
   VERSE CHORDS                                                            
E|-2----------7------5-----3------------------------------------------------|
B|-2----------7------5-----3------------------------------------------------|
G|-2----------7------6-----4------------------------------------------------|
D|-X----------X------7-----5------------------------------------------------|
A|-2----------7------7-----5------------------------------------------------|
E|-------------------5-----3------------------------------------------------|

   B9         E9     A     G
Caught up in a world wind cant catch my breath, knee deep in hot water 
 
broke out in cold sweat, cant catch the turtle in this rat race feels like

I'm losing time at breakneck pace.

etc....

  People walking the tightrope trying to make it right 
  E9                                             B9
  Walking the tightrope  every day and every night etc...repeat order of chord
               E9                            B9      
  Walking the tightrope
               A       G    (intro)
 Solo is played in the key of B

PLEASE COMMENT ON THESE ...(all you good for nothing SRV fans)
            
Submit corrections

comments powered by Disqus
↑ Back to top | Stevie Ray Vaughan Tabs for Tightrope. Lyrics for acoustic guitar and electric guitar. Tablatures and chords are parodies/interpretations of the original songs. You may use it for private study, scholarship, research or language learning purposes only