» » »

Couldn't Stand The Weather Bass tabs (ver.2)

Artists:  A B C D E F G H I J K L M N O P Q R S T U V W X Y Z # 

Couldn't Stand The Weather Bass tabs (ver.2)

Stevie Ray Vaughan
Rating:
0/5 (0 votes)

Hard to play? Try these video lessons and learn fast.
                Comments, Question, Welcome.

tuning: Down 1/2 step (Eb-Ab-Db-Gb)


Intro
Gb|-----------------------------------|
Db|-----------------------------------|
Ab|-2---0-----------------------------|
Eb|--------3---2----------------------|

Main Riff
Gb|-----------------------------------|
Db|-----------------------------------|
Ab|-5-3-5----------3---5-3-5----------|
Eb|-------1-3-4-5-------------2-3-4-5-|

Verse
Gb|-----------------------------------|
Db|-----------------------------------|
Ab|-5---------------------------------|
Eb|------------------3----------------|

Chorus
Gb|-----------------------------------|
Db|-----------------------------------|
Ab|-----------------------------------|
Eb|-2----------------0----------------|
            
Hard to play? Try these video lessons and learn fast. | Correct




comments powered by Disqus
↑ Back to top | Tablatures and chords are parodies/interpretations of the original songs. You may use it for private study, scholarship, research or language learning purposes only