» » »

Staind, Cross To Bear Tabs (ver.2)

Artists:  A B C D E F G H I J K L M N O P Q R S T U V W X Y Z # 

Cross To Bear Tabs (ver.2)

Staind Tabs
 Rating:
4/5 (5 votes)
Cross To Bear lessons Tabs too difficult? Try these video lessons and learn fast
1
                
Half-Step Down Tuning: eb,Bb,Gb,Db,Ab,Eb

Guitar I (lead): distorted
Guitar II (rhythm I): distorted
Guitar III (rythm II): clean

Intro:
Guitar I
eb-------14-13-|
Bb-11-12-------|
Gb-------------|x6
Db-------------|
Ab-------------|
Eb-------------|

Guitar II
eb---------------------------------|
Bb---------------------------------|
Gb---------5-5-5-5-----------------|
Db-2-2-2-2-5-5-5-5-2-2-2-2-5-5-5-5-|x3
Ab-2-2-2-2-3-3-3-3-2-2-2-2-5-5-5-5-|
Eb-0-0-0-0---------0-0-0-0-3-3-3-3-|

Guitar II intro continued
eb---------------------------------|
Bb---------------------------------|
Gb---------5-5-5-5-----------------|
Db-2-2-2-2-5-5-5-5-7-7-7-7-9-9-9-9-|x1
Ab-2-2-2-2-3-3-3-3-7-7-7-7-9-9-9-9-|
Eb-0-0-0-0---------5-5-5-5-7-7-7-7-|

Pre-Verse:
Guitar III
eb---------|
Bb---------|
Gb---------|
Db---------|x2
Ab-2-3-2---|
Eb-------3-|

Verse:
Guitar III          Guitar I (played during when Guitar III is playing)
eb--------------|   eb-------7--|
Bb--------------|   Bb------5-5-|
Gb--------------|   Gb--4-------|
Db--------------|x4 Db-2-2------|x4
Ab-2-3-2--------|   Ab----------|
Eb-------3------|   Eb----------|

Pre-Chorus:
Guitar I
eb-------14-13-|
Bb-11-12-------|
Gb-------------|x2
Db-------------|
Ab-------------|
Eb-------------|

Guitar II
eb---------------------------------|
Bb---------------------------------|
Gb---------5-5-5-5-----------------|
Db-2-2-2-2-5-5-5-5-2-2-2-2-5-5-5-5-|x2
Ab-2-2-2-2-3-3-3-3-2-2-2-2-5-5-5-5-|
Eb-0-0-0-0---------0-0-0-0-3-3-3-3-|

Chorus:
Guitar I,II
eb-----------------------------------------------------------------|
Bb-----------------------------------------------------------------|
Gb-5-5-5-5-5-5-5-5-------------------------------------------------|
Db-5-5-5-5-5-5-5-5-2-2-2-2-2-2-2-2-7-7-7-7-7-7-7-7-2-2-2-2-2-2-2-2-|
Ab-3-3-3-3-3-3-3-3-2-2-2-2-2-2-2-2-7-7-7-7-7-7-7-7-2-2-2-2-2-2-2-2-|
Eb-----------------0-0-0-0-0-0-0-0-5-5-5-5-5-5-5-5-0-0-0-0-0-0-0-0-|

Chorus continued
eb-----------------------------------------------------------------|
Bb-----------------------------------------------------------------|
Gb-5-5-5-5-5-5-5-5-------------------------------------------------|
Db-5-5-5-5-5-5-5-5-2-2-2-2-2-2-2-2-7-7-7-7-7-7-7-7-4-4-4-4-4-4-4-4-|
Ab-3-3-3-3-3-3-3-3-2-2-2-2-2-2-2-2-7-7-7-7-7-7-7-7-4-4-4-4-4-4-4-4-|
Eb-----------------0-0-0-0-0-0-0-0-5-5-5-5-5-5-5-5-2-2-2-2-2-2-2-2-|

post-Chorus:
Pre-Chorus

Verse
Pre-Chorus
Chorus

Bridge
Guitar I
eb-------14--------14--------14--16-14-15-|
Bb-11-12-----11-12-----11-12--------------|
Gb----------------------------------------|
Db----------------------------------------|x2
Ab----------------------------------------|
Eb----------------------------------------|

Guitar II
eb---------------------------------|
Bb---------------------------------|
Gb---------5-5-5-5-----------------|
Db-2-2-2-2-5-5-5-5-2-2-2-2-5-5-5-5-|x7
Ab-2-2-2-2-3-3-3-3-2-2-2-2-5-5-5-5-|
Eb-0-0-0-0---------0-0-0-0-3-3-3-3-|

Guitar II continued
eb---------------------------------|
Bb---------------------------------|
Gb---------5-5-5-5-----------------|
Db-2-2-2-2-5-5-5-5-7-7-7-7-9-9-9-9-|x1
Ab-2-2-2-2-3-3-3-3-7-7-7-7-9-9-9-9-|
Eb-0-0-0-0---------5-5-5-5-7-7-7-7-|

Chorus x2
Intro x2

End with
Guitar I
eb-------14-13-|
Bb-11-12-------|
Gb-------------|
Db-------------|x2
Ab-------------|
Eb-------------|

Guitar II
eb--------|
Bb--------|
Gb--------|
Db-2---2--|
Ab-2---2--|
Eb-0---0--|
            
Submit corrections

comments powered by Disqus
↑ Back to top | Staind Tabs for Cross To Bear. Lyrics for acoustic guitar and electric guitar. 1 Tablatures and chords are parodies/interpretations of the original songs. You may use it for private study, scholarship, research or language learning purposes only