» » »

Cross To Bear Tabs (ver.3)

Artists:  A B C D E F G H I J K L M N O P Q R S T U V W X Y Z # 

Cross To Bear Tabs (ver.3)

Staind
Rating:
5/5 (3 votes)

Hard to play? Try these video lessons and learn fast.
                I'm sure this tab isn't correct (although i'm pretty sure about the intro... but
because i think it is the coolest song off the new staind album, i gave it a try.
i know the tuning isn't correct, because mike uses his ibanez baritone guitar, but
i think some parts sound quite right.
I think i made it way too confusing, but maybe you'll get it anyway^^
have fun!

Tuning:
Db Ab Ab Gb Bb eb

intro:
(distorted)
eb-------------|
Bb-------20-19-|
Gb-16-17-------|
Db-------------|
Ab-------------|
Db-------------|


Verse:

gtI:
(clean)
eb------------|
Bb------------|
Gb------------|
Db------------|
Ab------------|
DB--9-10--9-5-|


GTII (does this sometimes) clean, or if you want slightly distorted:

eb------------------|
Bb------------------|
Gb-----------  <----| maybe if you're fast you can play it while playing the
Db---9--------------|      chorus
Ab-----10-----------|
Db-9----------------|

Pre-Chorus:

intro
+
i guess (can't hear it clear):

just shredd around on this chord:

eb------|
Bb------|
Gb------|
DB-9----|
Ab-9----|
DB-9----|


Chorus (distorted):        end on:
  2x
eb-----------------------------------|
bb-----------------------------------|
Gb-5----------5--4-------------------|
Db-5--2---5---5--4-------------2-----|
Ab-3--2---5---3--2-------------2-----|
Db----2---5--------------------2-----|


then intro again
(let fade out)

verse 2:
as verse 1 but also play

Gb ---16----   slightly bend it at the end


Chorus:                      end on:
  2x
eb------------------------------------|
bb------------------------------------|
Gb-5----------5--4--------------------|
Db-5--2---5---5--4-------------2------|
Ab-3--2---5---3--2-------------2------|
Db----2---5--------------------2------|


then (don't know how many times):

Bb --------20-        ---22-20-19--|
Gb 16--17-----  3X    -------------|

Chorus:                      end on:
  4x
eb------------------------------------|
bb------------------------------------|
Gb-5----------5--4--------------------|
Db-5--2---5---5--4-------------2------|
Ab-3--2---5---3--2-------------2------|
Db----2---5--------------------2------|

outro:

just play intro

end on:

bb ---17---
            
Hard to play? Try these video lessons and learn fast. | Correct




comments powered by Disqus
↑ Back to top | Tablatures and chords are parodies/interpretations of the original songs. You may use it for private study, scholarship, research or language learning purposes only