» » »

Cross To Bear Tabs (ver.1)

Artists:  A B C D E F G H I J K L M N O P Q R S T U V W X Y Z # 

Cross To Bear Tabs (ver.1)

Staind
Rating:
1/5 (1 vote)

Hard to play? Try these video lessons and learn fast.
                this is my first tab so i'm not very experienced, but i've listened to this song a 
times and it's a very good song. i tabbed it out and it sounds fairly accurate.


:01

        -----14-13-------14-13------14-13------14-13-----14-13--------14-13-|
        11-12------11-12------11-12------11-12------11-12------11-12--------|
        --------------------------------------------------------------------|
        --------------------------------------------------------------------|
        --------------------------------------------------------------------|
        --------------------------------------------------------------------|

:26

        --------------------------------------------------------------------|
        ---------------------------------11---------11----------11-------11-|
        10-11--10----10-11--10---10-11-10---10--10---- 10-11-10---10---10---|
        ----------11----------11------------- 11---------------------11-----|
        --------------------------------------------------------------------|
        --------------------------------------------------------------------|

:43

        --------------------------------------------------------------------|
        --------11-------11---------11--------------------------------------|
        10-11-10---10--10--10-11-10----11-10--------------------------------|
        -------------11-----------------------------------------------------|
        --------------------------------------------------------------------|
        --------------------------------------------------------------------|

!!! (WHEN I PUT AN h BY A NUMBER IT MEANS TO HOLD IT OUT LONGER, LIKE A WHOLE NOTE OR 
NOT TO PULL THE STRING OR HOLD IT BACK) !!!


:52

        ------14-13-------14-13h--------------------------------------------|
        11-12-------11-12---------------------------------------------------|
        --------------------------------------------------------------------|
        --------------------------------------------------------------------|
        --------------------------------------------------------------------|
        --------------------------------------------------------------------|

1:18
        -----14-13-------14-13-----------------------------------------------|
        11-12------11-12---------------------------------------11------11----|
        -----------------------10-11--10---10-11-10---10-11-10---10--10------|
        --------------------------------11---------11--------------11--------|
        ---------------------------------------------------------------------|
        ---------------------------------------------------------------------|

1:39
        ---------------------------------------------------------14-13------|
        ---------11-------11------11-------11---------11----11-12-----------|
        10-11-10---10--10---10-11---10--10---10-11-10---10------------------|
        -------------11---------------11------------------11----------------|
        --------------------------------------------------------------------|
        --------------------------------------------------------------------|

1:57

        ------14-13h---13-14-16-----14-13--------|
        11-12-----------------------------11-----|
        -------------10----------------------10--|
        -----------------------------------------|
        -----------------------------------------|
        -----------------------------------------|


2:18
        ---13-14----13-14----13-14-16-14-13---13-14---13-14---13-14-16-14-13-|h
        11--------11--------11----------------11-------11------11------------|
        ---------------------------------------------------------------------|
        ---------------------------------------------------------------------|
        ---------------------------------------------------------------------|
        ---------------------------------------------------------------------|


2:38
        ---------13-14-16-14-13-------13-14-16------------13--14--16---------|
        11----11---------------11h-------------11h-----11--------------------|
        ---10----------------------10--------------10h-----------------------|
        ---------------------------------------------------------------------|
        ---------------------------------------------------------------------|
        ---------------------------------------------------------------------|


2:57
        ---13-14-16----13-14-----13-14-16-------14-13-------14-13-----------|
        ---------------------11-----------11-12-------11-12-----------------|
        10----------10---------10-------------------------------------------|
        --------------------------------------------------------------------|
        --------------------------------------------------------------------|
        --------------------------------------------------------------------|

3:19
        -------14-13--------14-13--11h--------------------------------------|
        11-12--------11-12--------------------------------------------------|
        --------------------------------------------------------------------|
        --------------------------------------------------------------------|
        --------------------------------------------------------------------|
        --------------------------------------------------------------------|

and that's about it. note this is the lead part not the loud background chord part. it's 
easy to play i think i've only been playing for a few months. please enjoy and please 
this tab! thnx!

any questions or comments:
            
Hard to play? Try these video lessons and learn fast. | Correct




comments powered by Disqus
↑ Back to top | Tablatures and chords are parodies/interpretations of the original songs. You may use it for private study, scholarship, research or language learning purposes only