» » »

Staind, Tangled Up In You Tabs (ver.1)

Artists:  A B C D E F G H I J K L M N O P Q R S T U V W X Y Z # 

Tangled Up In You Tabs (ver.1)

Staind Tabs
 Rating:
4/5 (4 votes)
Tangled Up In You lessons Tabs too difficult? Try these video lessons and learn fast
1
                *********************************************************************
After about 3 hours, I think I finally got this song down. Though
the tuning I'm not sure of, Mike uses a variety of tunings high and
low; while Aaron uses down 1/2 step mainly and sometimes drop d down
1/2 step also. This is in now way 100% perfect. I tabbed all by ear.
*********************************************************************

Okay this is a reply to his, his was ALMOST right, except for the ending notes didn't
right when I played it, so I decided to just fix it for him. Same tuning and all.

==From Low to High==

Acous. Gtr. 1 tuned:

Db Ab Db F Ab Db


  #INTRO

  let ring throughout.

Db|----------------|----------------|----------------|----------------|
Ab|----------------|----------------|----------------|----------------|
F |-----------1----|-----------1----|-----------6----|-----------6----|  X2
Db|--------2-------|--------2-------|--------7-------|--------7-------|
Ab|-----0----------|-----0----------|-----5----------|-----5----------|
Db|--0-------------|--0-------------|--5-------------|--5-------------|


  #VERSE

   "Your my world..."

Db|----------------|----------------|----------------|----------------|
Ab|----------------|----------------|----------------|----------------|
F |-----------1----|-----------1----|-----------6----|-----------6----|  X4
Db|--------2-------|--------2-------|--------7-------|--------7-------|
Ab|-----0----------|-----0----------|-----5----------|-----5----------|
Db|--0-------------|--0-------------|--5-------------|--5-------------|


  #CHORUS

  "And in this world..."

Db|----------------|----------------|----------------|----------------|
Ab|----------------|----------------|----------------|----------------|
F |-----------9----|-----------9----|-----------6----|-----------6----|  X2
Db|--------11------|--------11------|--------7-------|--------7-------|
Ab|-----9----------|-----9----------|-----5----------|-----5----------|
Db|--9-------------|--9-------------|--5-------------|--5-------------|


  #INTERLUDE


Db|----------------|----------------|----------------|----------------|
Ab|----------------|----------------|----------------|----------------|
F |-----------1----|-----------1----|-----------6----|-----------6----|
Db|--------2-------|--------2-------|--------7-------|--------7-------|
Ab|-----0----------|-----0----------|-----5----------|-----5----------|
Db|--0-------------|--0-------------|--5-------------|--5-------------|

Db|----------------|----------------|----------------|----------------|
Ab|----------------|----------------|----------------|----------------|
F |-----------1----|-----------1----|-----------6----|-------5--------|
Db|--------2-------|--------2-------|--------7-------|-------7--------|
Ab|-----0----------|-----0----------|-----5----------|-------5--------|
Db|--0-------------|--0-------------|--5-------------|-------5--------|


  #VERSE ->

  #CHORUS ->

  #BRIDGE

  "How long has it been...."

Db|----------------|----------------|----------------|----------------|
Ab|----------------|----------------|----------------|----------------|
F |-----------9----|-----------6----|-----------1----|-----------8----|  X2
Db|--------11------|--------7-------|--------7-------|--------9-------|
Ab|-----9----------|-----5----------|-----0----------|-----7----------|
Db|--9-------------|--5-------------|--0-------------|--7-------------|

  #CHORUS ->


  #OUTRO

                                              "I'm still tangled up in you..."

Db|----------------|----------------|----------------|----------------|
Ab|----------------|----------------|----------------|----------------|
F |-----------1----|-----------1----|-----------6----|-----------6----|  X2
Db|--------2-------|--------2-------|--------7-------|--------7-------|
Ab|-----0----------|-----0----------|-----5----------|-----5----------|
Db|--0-------------|--0-------------|--5-------------|--5-------------|

Db|---------------------------1-----|
Ab|----------------------0----------|
F |-----------------1---------------|
Db|------------2--------------------|
Ab|-------0-------------------------|
Db|--0------------------------------|
            
Submit corrections

comments powered by Disqus
↑ Back to top | Staind Tabs for Tangled Up In You. Lyrics for acoustic guitar and electric guitar. 1 Tablatures and chords are parodies/interpretations of the original songs. You may use it for private study, scholarship, research or language learning purposes only