» » »

Staind, Believe Bass tabs (ver.2)

Artists:  A B C D E F G H I J K L M N O P Q R S T U V W X Y Z # 

Believe Bass tabs (ver.2)

Staind Tabs
 Rating:
3.3/5 (6 votes)
Believe lessons Tabs too difficult? Try these video lessons and learn fast
                "-------------------------------------------------------------------------------
			     BELIEVE - Staind
-------------------------------------------------------------------------------


NOTE:  Simplified

Tuning: E A D G


Intro:
G|---------------------------------------------------------------------------|
D|--------------------------------------------------------8------------------|
A|---------------------------------------------------------------------------|
E|2---------------1---------------2-------4-------6--------------------------|

Verse (x2):
G|---------------------------------------------------------------------------|
D|---------------------------------------------------------------------------|
A|---------------------------------------------------------------------------|
E|2222222222222222-1111111111111111-22222222-44444444-6666666666666666-------|

Chorus (x3):
G|---------------------------------------------------------------------------|
D|---------------------------------------------------------------------------|
A|---------------------------------------------------------------------------|
E|22222222-66666666-11111111-44444444----------------------------------------|

G|---------------------------------------------------------------------------|
D|---------------------------------------------------------------------------|
A|---------------------------------------------------------------------------|
E|22222222-66666666-11111111-44444444-4--------------------------------------|

Verse (x2):
G|---------------------------------------------------------------------------|
D|---------------------------------------------------------------------------|
A|---------------------------------------------------------------------------|
E|2222222222222222-1111111111111111-22222222-44444444-6666666666666666-------|

Chorus (x3):
G|---------------------------------------------------------------------------|
D|---------------------------------------------------------------------------|
A|---------------------------------------------------------------------------|
E|22222222-66666666-11111111-44444444----------------------------------------|

G|---------------------------------------------------------------------------|
D|---------------------------------------------------------------------------|
A|---------------------------------------------------------------------------|
E|22222222-66666666-11111111-44444444----------------------------------------|

Bridge:
G|---------------------------------------------------------------------------|
D|---------------------------------------------------------------------------|
A|---------------------------------------------------------------------------|
E|6-------2-------4-------1-------6-------2-------4-------6------------------|

G|---------------------------------------------------------------------------|
D|---------------------------------------------------------------------------|
A|---------------------------------------------------------------------------|
E|2---------------1---------------2-------4-------6--------------------------|

Verse:
G|---------------------------------------------------------------------------|
D|---------------------------------------------------------------------------|
A|---------------------------------------------------------------------------|
E|22222222-66666666-11111111-44444444----------------------------------------|

G|---------------------------------------------------------------------------|
D|---------------------------------------------------------------------------|
A|---------------------------------------------------------------------------|
E|22222222-66666666-11111111-44444444-44444444-------------------------------|

Chorus (x4):
G|---------------------------------------------------------------------------|
D|---------------------------------------------------------------------------|
A|---------------------------------------------------------------------------|
E|22222222-66666666-11111111-44444444----------------------------------------|

End:
G|---------------------------------------------------------------------------|
D|---------------------------------------------------------------------------|
A|---------------------------------------------------------------------------|
E|2-------1-------6----------------------------------------------------------|


| /  slide up
| \  slide down
| h  hammer-on
| p  pull-off
| ~  vibrato
| +  harmonic
| x  Mute note
===============================================================================
"            
Submit corrections

comments powered by Disqus
↑ Back to top | Staind Bass for Believe. Lyrics for acoustic guitar and electric guitar. Tablatures and chords are parodies/interpretations of the original songs. You may use it for private study, scholarship, research or language learning purposes only