» » »

Staind, Believe Tabs (ver.3)

Artists:  A B C D E F G H I J K L M N O P Q R S T U V W X Y Z # 

Believe Tabs (ver.3)

Staind Tabs
 Rating:
3.4/5 (9 votes)
Believe lessons Tabs too difficult? Try these video lessons and learn fast
1
                "




wait for the new album "The Illusion of Progress" that is being released August 19

Intro:
Guitar 1
-------------------------------------------------------------------|
--------3----------------------------------3-----------------------|
---2-------2-------0h2---0h2----2----2-------2--------2--------2---|
-----------------4-----4-----4--------------------2h4---4--2h4---4-|
-------------------------------------------------------------------|
-3---3--------3--------------------2----2-------2------------------|

Guitar 2
-----------------------------------------------------------------|
-----------------------------------------------------------------|
-----------------------------------------------------------------|
-5-------------------------------4-------------------------------|
-5-------------------------------5-------------------------------|
-3-------------------------------2-------------------------------|


Guitar 1
-------------------------------------------------------------------|
-------3------------------3----------------------------------------|
---2------2----2--2-2--------2---2-----------3*------4*--5*--3*----|
------------------2------------2--------4*------3*-----4*--4*------|
------------------0----0-------------4-----------------------------|
-3---3-------3-----------------------------------------------------|

Guitar 2
---------------------------------------------------------------------|
---------------------------------------------------------------------|
---------------------------------------------------------------------|
-5--------------7-----------------9------------------9---------------|
-5--------------7-----------------9------------------9---------------|
-3--------------5-----------------7------------------7---------------|

VERSE:

Guitar 1
------------------------------------------------------------------------|
------------------------------------------------------------------------|
------------------------------------------------------------------------|
------------------------------------------------------------------------|
------------------------------------------------------------------------|
------------------------------------------------------------------------|

Guitar 2- Palm Mute
-----------------------------------------------------------------|
-----------------------------------------------------------------|
-----------------------------------------------------------------|
-5544554455445544554455445544554455445544554455445544554455445544
-5555555555555555555555555555555555555555555555555555555555555555
-3333333333333333333333333333333322222222222222222222222222222222

Guitar 1
-----------------------------------------------------------------|
-----------------------------------------------------------------|
-----------------------------------------------------------------|
-----------------------------------------------------------------|
-----------------------------------------------------------------|
-----------------------------------------------------------------|

Guitar2- Palm Mute
------------------------------------------------------------------|
------------------------------------------------------------------|
-----------------222222222222222244444444444444444444444444444444-|
-5544554455445544554455445544554455445544554455445544554455445544
-5555555555555555000000000000000022222222222222222222222222222222
-3333333333333333------------------------------------------------

Guitar 1
-----------------------------------------------------------------|
-3---------------------------------------------------------------|
-2---------------------------------------------------------------|
-0---------------------------------------------------------------|
-x---------------------------------------------------------------|
-3---------------------------------------------------------------|

Guitar 2: repeats all before

CHORUS:

Guitar 1
-------------------------------------------------------------------|
--------3----------------------------------3-----------------------|
---2-------2-------0h2---0h2----2----2-------2--------2--------2---|
-----------------4-----4-----4--------------------2h4---4--2h4---4-|
-------------------------------------------------------------------|
-3---3--------3--------------------2----2-------2------------------|

Guitar 2
---------------------------------------------------------------|
---------------------------------------------------------------|
-----------------4-----4--4--4-------------------2-----2--2--2-|
-5-----5--5--5---4-----4--4--4---4-----4--4--4---2-----2--2--2-|
-5-----5--5--5---2-----2--2--2---4-----4--4--4---0-----0--0--0-|
-3-----3--3--3-------------------2-----2--2--2-----------------|

play guitar 1&2 part 4 times


play verse


play chorus


Bridge:

Guitar 1
-----------------------------------|
-----------------------------------|
-6/7------2/4------9/11------6h7p6-|
-----------------------------------|
-----------------------------------|
-----------------------------------|

Guiatar 2
------------------------------|
------------------------------|
-4-----------------6--------2-|
-4--------5--------6--------2-|
-2--------5--------4--------0-|
----------3-------------------|

Guitar 1
-------------------------------------------|
-------------------------------------------|
-6/7------2/4------9/11------6h7p6---6h7p6-|
-------------------------------------------|
-------------------------------------------|
-------------------------------------------|

Guitar 2
-------------------------------------------|
-------------------------------------------|
-4-----------------6--------2---------2----|
-4--------5--------6--------2---------2----|
-2--------5--------4--------0---------0----|
----------3--------------------------------|


Ply into


play 1/2 chorus palm muted with no guitar 1

then play chorus with guitar 1&2

Outro:

Guitar 1:
---------2------------|
---------2-------/7---|
-4-------2-------/7---|
-5-------4-------/9---|
-5-------4-------/9---|
-3-------2-------/7---|
"            
Submit corrections

comments powered by Disqus
↑ Back to top | Staind Tabs for Believe. Lyrics for acoustic guitar and electric guitar. 1 Tablatures and chords are parodies/interpretations of the original songs. You may use it for private study, scholarship, research or language learning purposes only