» » »

Staind, Believe Bass tabs (ver.1)

Artists:  A B C D E F G H I J K L M N O P Q R S T U V W X Y Z # 

Believe Bass tabs (ver.1)

Staind Tabs
Rating:
5/5 (1 vote)
Believe lessons Tabs too difficult? Try these video lessons and learn fast
                "
tuning:  standard E A D G

Intro:
G-----------------------------------------------------------------------|
D-----------------------------------------------------------------------|
A-----------------------------------------------------------------------|
E---3--------2--------3----------5-------------7------------------------|

Verse:
G-----------------------------------------------------------------------|
D-----------------------------------------------------------------------|
A-----------------------------------------------------------------------|
E--3333-333333-2222-22222-33333-555-7777-77777--------------------------|


Chorus:
G-----------------------------------------------------------------------|
D-----------------------------------------------------------------------|
A----5-3-0-----7-5-0---5-3-0-----7-5-0----------------------------------|
E--33------777-------2-------555-------33-------------------------------|


Verse:
G-----------------------------------------------------------------------|
D-----------------------------------------------------------------------|
A-----------------------------------------------------------------------|
E--3333-333333-2222-22222-33333-555-7777-77777--------------------------|

Bridge:
G-----------------------------------------------------------------------|
D-----------------------------------------------------------------------|
A-----------------------------------------------------------------------|
E---7--------3--------5--------7----------------------------------------|


G-----------------------------------------------------------------------|
D-----------------------------------------------------------------------|
A-----------------------------------------------------------------------|
E---3--------2--------3----------5-------------7------------------------|

Verse (x2)
G-----------------------------------------------------------------------|
D-----------------------------------------------------------------------|
A-----------------------------------------------------------------------|
E--333333333-7777777777-22222-5555555555--------------------------------|

Chorus: (x4)
G-----------------------------------------------------------------------|
D-----------------------------------------------------------------------|
A----5-3-0-----7-5-0---5-3-0-----7-5-0----------------------------------|
E--33------777-------2-------555-------33-------------------------------|


End:
G-----------------------------------------------------------------------|
D-----------------------------------------------------------------------|
A-----------------------------------------------------------------------|
E--3-------2-------------7----------------------------------------------|
"            
Submit corrections

comments powered by Disqus
↑ Back to top | Staind Bass for Believe. Lyrics for acoustic guitar and electric guitar. Tablatures and chords are parodies/interpretations of the original songs. You may use it for private study, scholarship, research or language learning purposes only