» » »

Soapdish, Kahit Maputi Na Ang Buhok Ko Tabs (ver.3)

Artists:  A B C D E F G H I J K L M N O P Q R S T U V W X Y Z # 

Kahit Maputi Na Ang Buhok Ko Tabs (ver.3)

Soapdish Tabs
 Rating:
4/5 (4 votes)
Kahit Maputi Na Ang Buhok Ko lessons Tabs too difficult? Try these video lessons and learn fast
                2nd tab ko 

kayo nlng humusga :))

tuning standard 
Intro: A Bm
e|------------------------------------------------------|
B|------------------------------------------------------|
G|--4-4-6--4-4-6----6-6-7--6-6-7------------------------|
D|------------------------------------------------------|   2x
A|------------------------------------------------------|
E|------------------------------------------------------|

                    A
 Kung tayo ay matanda na
           Bm
 Sana'y di tayo magbago
 A
 Kailan man
              Bm
 Nasaan ma'y ito ang pangarap ko
         C#m
 Makuha mo pa   kayang
                   F#m
 Ako'y hagkan at yakapin, ooh
D          E         A
 Hanggang pagtanda natin
 A           D
 Nagtatanong lang sa iyo
  E            C#m       F#
 Ako  pa kaya'y ibigin mo
          Bm     E         A
 Kung maputi  na ang buhok ko



to second verse: A Bm
e|------------------------------------------------------|
B|------------------------------------------------------|
G|---4-4-6--4-4-6----6-6-7--6-6-7-----------------------|
D|------------------------------------------------------|   2x
A|------------------------------------------------------|
E|------------------------------------------------------|

nila2ro lng ung bass dito  ung chords A at Bm pa rin

              A 
 Pagdating ng araw
          
 Ang 'yong buhok
    Bm
 Ay puputi na rin
 A
 Sabay tayong mangangarap
      Bm
 Ng nakaraan sa 'tin
 C#m                       F#m
 Ang nakalipas ay ibabalik natin, ooh
D           E      A
 Ipapaalala ko sa 'yo
A         D
 Ang aking pangako
  E                   C#m         F#
 Na ang pag-ibig ko'y laging sa 'yo
           Bm     E       A
 Kahit maputi na ang buhok ko.
Adlib: A Bm
e|---------------------------|
B|---------------------------|
G|---------------------------|
D|-7/99/1111/1414------------|
A|-7/99/1111/1414------------|
E|-5/77/9-9-/1212------------|

e|------------------------------7-9----12---12-10-9--10-9---------------|
B|--------------------------7-10---10-----10-------12----12-10-12--7h9~-|
G|--14~-14-13~-11-11~--7h9-9---------11---------------------------------|
D|----------------------------------------------------------------------|
A|----------------------------------------------------------------------|
E|----------------------------------------------------------------------|

         C#m
 Ang nakalipas
             F#m
 Ay ibabalik natin, hmmm
D          E         A
 Ipapaalala ko sa 'yo
  A      D
 Ang aking pangako
E                       C#m       F#
 Na   ang pag-ibig ko'y laging sa 'yo
           Bm     E       C#m
 Kahit maputi na ang buhok ko.
           Bm     E               A
 Kahit maputi o wala na ang buhok ko.

outro: A Bm
|------------------------------------------------------|
|------------------------------------------------------|
|--4-4-6--4-4-6---6-6-7--6-6-7-------------------------|
|------------------------------------------------------|   2x
|------------------------------------------------------|
|------------------------------------------------------|


End of A


are welcum
            
Submit corrections

comments powered by Disqus
↑ Back to top | Soapdish Tabs for Kahit Maputi Na Ang Buhok Ko. Lyrics for acoustic guitar and electric guitar. Tablatures and chords are parodies/interpretations of the original songs. You may use it for private study, scholarship, research or language learning purposes only