» » »

Soapdish, Kahit Maputi Na Ang Buhok Ko Tabs (ver.2)

Artists:  A B C D E F G H I J K L M N O P Q R S T U V W X Y Z # 

Kahit Maputi Na Ang Buhok Ko Tabs (ver.2)

Soapdish Tabs
 Rating:
4/5 (9 votes)
Kahit Maputi Na Ang Buhok Ko lessons Tabs too difficult? Try these video lessons and learn fast
                ~######################################################~
#Kahit maputi na ang buhok ko                          #
#By: SoapDish                                          #
#Tabed By: MarcoRAKIZTA(John Marco C, Peñol)           #
#Tuning: E-Standard                                    #
#1st Tab ko po to kaya 90% sure poh e2ng sinipra qh     #
#wla poh aqng minali dyan .. comments na lang..hehe..  #
#for Suggestion na gusto nyung ipost qh.. Thank you    #
~######################################################~
Intro: A Bm
|------------------------------------------------------|
|------------------------------------------------------|
|--5-5-7--5-5-7----7-7-8--7-7-8------------------------|
|------------------------------------------------------|   2x
|------------------------------------------------------|
|------------------------------------------------------|

        A
 Kung tayo ay matanda na
           Bm
 Sana'y di tayo magbago
 A
 Kailan man
              Bm
 Nasaan ma'y ito ang pangarap ko
         C#m
 Makuha mo pa   kayang
                   F#m
 Ako'y hagkan at yakapin, ooh
D          E         A
 Hanggang pagtanda natin
 A           D
 Nagtatanong lang sa iyo
  E            C#m     F#
 Ako  pa kaya'y ibigin mo
          Bm     E        A
 Kung maputi  na ang buhok ko
Intro: A Bm
|------------------------------------------------------|
|------------------------------------------------------|
|--5-5-7--5-5-7----7-7-8--7-7-8------------------------|
|------------------------------------------------------|   2x
|------------------------------------------------------|
|------------------------------------------------------|

Marco™(d2 sa parteng to nakakahilo ang A and Bm minor na pattern dahil sa base 
A and Bm pa rin chords d2 kayu na lang bahala sa diskarte)

 Pagdating ng araw

 Ang 'yong buhok

 Ay puputi na rin

 Sabay tayong mangangarap

 Ng nakaraan sa 'tin
 C#m                       F#m
 Ang nakalipas ay ibabalik natin, ooh
D           E     A
 Ipapaalala ko sa 'yo
A        D
 Ang aking pangako
  E                   C#m         F#
 Na ang pag-ibig ko'y laging sa 'yo
           Bm     E       A
 Kahit maputi na ang buhok ko.
Adlib: A Bm
|-------------------------|Marco™=> u nid 2 hir da song para may timing kayu..
|-------------------------|        (-‘_’-)Be patient poh...for reading tab..^_^
|-------------------------|
|-7/99/1111/15------------|
|-xxxxxxxxxxxx------------|
|-5/77/99/12--------------|

|------------7-9------10/12-----12-10-9----10-9------------------------|
|-------7-10-----10---------9/10-------12--------12-10-12-12-7/9-------|
|---7-9------------11--------------------------------------------------|
|-9--------------------------------------------------------------------|
|----------------------------------------------------------------------|
|----------------------------------------------------------------------|

         C#m
 Ang nakalipas
             F#m
 Ay ibabalik natin, hmmm
D          E         A
 Ipapaalala ko sa 'yo
  A      D
 Ang aking pangako
E                       C#m       F#
 Na   ang pag-ibig ko'y laging sa 'yo
           Bm     E       C#m
 Kahit maputi na ang buhok ko.
           Bm     E               A
 Kahit maputi o wala na ang buhok ko.

Intro: A Bm
|------------------------------------------------------|
|------------------------------------------------------|
|--5-5-7--5-5-7----7-7-8--7-7-8------------------------|
|------------------------------------------------------|   2x
|------------------------------------------------------|
|------------------------------------------------------|
End. . . .(-‘_’-)



~####################################################################~
#sana nagus2han nyu ang pagkatab qh ng “Kahit maputi na ang buhok ko”#
#by: soapdish, kelangan lang poh ng kunting pasensya sa pagbasa nyan #
#dat hir nyu song for d timing and cya ngah pla just e-mail me or add#
#Special Thanks to Noinoi our drummer...itatab qh na rin poh base n2 #
#always remember!!!!      /\                                         #
                /  \
               /    \
              /______\Marco™=>Always use your peak!!!!
~############################################################~
            
Submit corrections

comments powered by Disqus
↑ Back to top | Soapdish Tabs for Kahit Maputi Na Ang Buhok Ko. Lyrics for acoustic guitar and electric guitar. Tablatures and chords are parodies/interpretations of the original songs. You may use it for private study, scholarship, research or language learning purposes only