» » »

Soapdish, Tensionado Bass tabs (ver.1)

Artists:  A B C D E F G H I J K L M N O P Q R S T U V W X Y Z # 

Tensionado Bass tabs (ver.1)

Soapdish Tabs
Rating:
3/5 (7 votes)
Tensionado lessons Tabs too difficult? Try these video lessons and learn fast
                
Band name: Kadlayapak
Guitar 1:  Bryan
Guitar 2:  Shella & Wilmer
Bass:      Jayson
Drums:     Martin



Intro: A2 (3x)
G|----------------------------|------------------------------|
D|----------------------------|------------------------------|
A|----------------------------|------------------------------|
E|---5--55------5--55---------|---5--55----------5~----------|
          Pause      Pause              Pause    Tensionado...

Verse I: (Guitar Only) A2-C#m7-Bm7-Dm7-E

Chorus I:
G|----------------------------|------------------------------|
D|----------------------------|------------------------------|
A|---5----------------4-------|-----5----------------4-------|
E|----------------------------|------------------------------|
     Sandali lang..   Wag ka...   Di ko hahayaan..  Na ito...

G|----------------------------|------7/9-7-6-7---------------|
D|----------------------------|---7------------7-------------|
A|---2--------------5---------|------------------7-----------|
E|----------------------------|---------------------5--------|
  Ang iniisip ko,   kung pwede...

Interlude: A2-C#m7-Bm7-Dm7-E
G|----------------------------|-----------6--6/8-6-----------|
D|-------7--7/9-7-6h7---------|---------6--6-----------------|
A|-----7--7-----------7-------|---0-4-4-------------4-3------|
E|---5------------------------|------------------------------|

G|-------4--------------------|-------7--7/9-7-6h7-----------|
D|-----4---4------------------|-----7--7-----------7---------|
A|---2-------2-2/5-5----------|---5------------------7-------|
E|----------------------------|------------------------5-----|

Verese II:(2x)
G|----------------------------|-----------6--6/8-6-----------|
D|-------7--7/9-7-6h7---------|---------6--6-----------------|
A|-----7--7-----------7-------|---0-4-4-------------4-3------|
E|---5------------------------|------------------------------|

G|-------4--------------------|-------7--7/9-7-6h7-----------|
D|-----4---4------------------|-----7--7-----------7---------|
A|---2-------2-2/5-5----------|---5------------------7-------|
E|----------------------------|------------------------5-----|(2x)

Chorus II:
G|-------6h7------------------|     |-------6--------------------|
D|-----7-----7----------------|     |-----6---6------------------|
A|---5---------5--------------|     |---4-------4----------------|
E|----------------------------|(2x) |----------------------------|
 
G|-------6h7------------------|     |-------6--------------------|
D|-----7-----7----------------|     |-----6---6------------------|
A|---5---------5---2--3/4-----|     |---4-------4--4-3-----------|
E|----------------------------|(2x) |----------------------------|
  
G|-------4--------------------|-----7/9-7-6-7----------------|
D|-----4---4------------------|---7-----------7--------------|
A|---2-------2-2/5--5---------|-----------------7------------|
E|----------------------------|-------------------5----------|

Instrumental:A2-C#m7-Bm7-Dm7-E (2x)
G|----------------------------|-----------6--6/8-6-----------|
D|-------7--7/9-7-6h7---------|---------6--6-----------------|
A|-----7--7-----------7-------|---0-4-4-------------4-3------|
E|---5------------------------|------------------------------|

G|-------4--------------------|-------7--7/9-7-6h7-----------|
D|-----4---4------------------|-----7--7-----------7---------|
A|---2-------2-2/5-5----------|---5------------------7-------|
E|----------------------------|------------------------5-----|(2x)

Chorus III:
G|-------6h7------------------|     |-------6--------------------|
D|-----7-----7----------------|     |-----6---6------------------|
A|---5---------5--------------|     |---4-------4----------------|
E|----------------------------|(2x) |----------------------------|
 
G|-------6h7------------------|     |-------6--------------------|
D|-----7-----7----------------|     |-----6---6------------------|
A|---5---------5---2--3/4-----|     |---4-------4--4-3-----------|
E|----------------------------|(2x) |----------------------------|(2x)
  
G|-------4--------------------|-----7/9-7-6-7----------------|
D|-----4---4------------------|---7-----------7--------------|
A|---2-------2-2/5--5---------|-----------------7------------|
E|----------------------------|-------------------5----------|

Outro: A2 (3x)
G|----------------------------|------------------------------|
D|----------------------------|------------------------------|
A|----------------------------|------------------------------|
E|---5--55------5--55---------|---5--55----------------------|
          Pause      Pause              Pause

Sure 2 Mga Bro... Share ko lang God Bless 2 All
            

comments powered by Disqus
↑ Back to top | Soapdish Bass for Tensionado. Lyrics for acoustic guitar and electric guitar. Tablatures and chords are parodies/interpretations of the original songs. You may use it for private study, scholarship, research or language learning purposes only