» » »

Soapdish, Kahit Maputi Na Ang Buhok Ko Tabs (ver.1)

Artists:  A B C D E F G H I J K L M N O P Q R S T U V W X Y Z # 

Kahit Maputi Na Ang Buhok Ko Tabs (ver.1)

Soapdish Tabs
 Rating:
4/5 (11 votes)
Kahit Maputi Na Ang Buhok Ko lessons Tabs too difficult? Try these video lessons and learn fast
1
                 uli..ung una ng chords ay 80's version pa ..hehehe....muka kayong puwit..
kahit maputi na ang buhok ko
 modern version

intro- A9 D A9 D

e------------------------------------------------------|
b------------------------------------------------------|
g--4-4----4-4------6-6-7--6-6-7------------------------|
d------7------7----------------------------------------|   2x
a------------------------------------------------------|
E------------------------------------------------------|

                  A9
 Kung tayo ay matanda na
           Bm
 Sana'y di tayo magbago
 A9
 Kailan man
              Bm
 Nasaan ma'y ito ang pangarap ko
         C#m
 Makuha mo pa   kayang
  C#7              F#m    A7
 Ako'y hagkan at yakapin, ooh
D          E         AM7
 Hanggang pagtanda natin
 A7        D
 Nagtatanong lang sa iyo
  D#dim            C#m     F#
 Ako    pa kaya'y ibigin mo
          Bm     E        A
 Kung maputi  na ang buhok ko?
repeat intro

(1st stanza chords)
 Pagdating ng araw
 Ang 'yong buhok
 Ay puputi na rin
 Sabay tayong mangangarap
 Ng nakaraan sa 'tin
 Ang nakalipas ay ibabalik natin, ooh
 Ipapaalala ko sa 'yo
 Ang aking pangako
 Na ang pag-ibig ko'y laging sa 'yo
 Kahit maputi na ang buhok ko.

Adlib- A D(2x)

e|--------------------------------------------|
b|---------------------8/10-10--9-9-7-7-------|
g|-2/4-4-6-6/7--7/9-9--x--x-x---x-x-x-x-------|
d|-x-x-x-x-x-x--x-x-x--5/7--7---6-6-4-4-------|
a|-0/2-2-4-4/5--5/7-7-------------------------|
E|--------------------------------------------|

e|-------------7-9------10/12-----12-10-9----10-9-----------------------|
b|-------7-8-10-----10---------9/10-------12--------12-10-12-12-7/9-----|
g|----7-9-------------11------------------------------------------------|
d|-7-9------------------------------------------------------------------|
a|----------------------------------------------------------------------|
E|----------------------------------------------------------------------|


         C#m
 Ang nakalipas
 C#7          F#m      A7
 Ay ibabalik natin, hmmm
D          E         AM7
 Ipapaalala ko sa 'yo
  A7     D
 Ang aking pangako
D#dim            C#m     F#
 Na   ang pag-ibig ko'y laging sa 'yo
  Bm     E        A9
 Kahit maputi  na ang buhok ko...
           Bm     F#       A9 
 Kahit maputi  na ang buhok ko.

intro uli..
            
Submit corrections

comments powered by Disqus
↑ Back to top | Soapdish Tabs for Kahit Maputi Na Ang Buhok Ko. Lyrics for acoustic guitar and electric guitar. 1 Tablatures and chords are parodies/interpretations of the original songs. You may use it for private study, scholarship, research or language learning purposes only