» » »

Soapdish, Ewan Ko Tabs (ver.2)

Artists:  A B C D E F G H I J K L M N O P Q R S T U V W X Y Z # 

Ewan Ko Tabs (ver.2)

Soapdish Tabs
Rating:
4/5 (2 votes)
Ewan Ko lessons Tabs too difficult? Try these video lessons and learn fast
                SoapDish
Ewan ko
--------------------------------------
Intro:
e|-----------------------------------|
G|-----------------------------------|
D|-----------------------------------|
B|---4-4-4h6-4-4-4h6-----------------|
A|-----------------------------------|
E|-----------------------------------|


chords: E- E- A~

Verse:

e|-----------------------------------|
G|-----------------------------------|
D|-----------------------------------|
B|---4-4-4h6-4-4-4h6-----------------|
A|-----------------------------------|
E|-----------------------------------|

E
di nya sinabi pero may nagsabi
E
gusto mo yata kasama ka parati
A
pero ewan ko, ewan ko
E
naubos na ang pera sa kakalakwatsa 
E
gusto mo yata parati kang kasama
A
pero ewan ko, ewan ko

Pre chorus:
G#         A
Napapansin mo na yata
G#         A
Nakakahiya naman
G#         A           B
gusto lng naman ktang pigilan.

Chorus:

E           B          C#       A
Napapalingon tuwing ika'y dumadaan
Napapangiti di ko alam ang dahilan

F#             G#             A
Alam kong di pwepwedeng maging tau?
F#             G#             A               B
pero minsan nagiiba ang ikot ng.. ang ikot ng mundo

e|-----------------------------------|
G|-----------------------------------|
D|-----------------------------------|
B|---4-4-4h6-4-4-4h6-----------------|
A|-----------------------------------|
E|-----------------------------------|

Verse 2:
(katulad din ng chords verse)
Susmaryosep tila ay sumabit
Mapahiya na di na makalapit
pero ewan ko ewan ko

(Pre chorus)
(Chorus)

Adlib:

E-A


e|-----------------------------------|
G|-----------------------------------|
D|---4-4-4h6-4-4-4h6-----------------|
B|-----------------------------------|
A|-----------------------------------|
E|-----------------------------------|

(chorus)

tpos dun sa pahuli:

e|-----------------------------------|
G|-----------------------------------|
D|-----------------------------------|
B|---4-4-4h6-4-4-4h6-----------------|
A|-----------------------------------|
E|-----------------------------------|

puro E na Chord!!

yan lng yan rate nyo naman! :)


======doaw=========
            
Submit corrections

comments powered by Disqus
↑ Back to top | Soapdish Tabs for Ewan Ko. Lyrics for acoustic guitar and electric guitar. Tablatures and chords are parodies/interpretations of the original songs. You may use it for private study, scholarship, research or language learning purposes only