» » »

Ewan Ko Tabs (ver.1)

Artists:  A B C D E F G H I J K L M N O P Q R S T U V W X Y Z # 

Ewan Ko Tabs (ver.1)

Soapdish
Rating:
2/5 (6 votes)

Hard to play? Try these video lessons and learn fast.
                1st tab ko po toh! dati ko pang gustong sumali eh.. pero ngyon lng ako nkasali...
hehehe... bsta i-rate nyo n lng toh... ^^,

INTRO:
Guitar1
|------------------------------------------------------------------------|
|------------------------------------------------------------------------|
|------------------------------------------------------------------------|
|------------------------------------------------------------------------|
|-9-9-9-11--9-9-9-9-11---9-9-9-11--9-9-9-9-11--9-9-9-11--9-9-9-9-11------|
|------------------------------------------------------------------------|
                                              Guitar2
                                              |----------------------|
                                              |----------------------|
                                              |-9--------------------|
                                              |-9(let it ring)-------|
                                              |-7--------------------|
                                              |----------------------|


Guitar1
|------------------------------------------------------------------------|
|------------------------------------------------------------------------|
|------------------------------------------------------------------------|
|------------------------------14---------14-----------------------------|
|-9-9-9-11--9-9-9-9-11---14-12-14---14-12-14-----------------------------|
|------------------------------12---------12-----------------------------|
Guitar2
|------------------------------------------------------------------------|
|------------------------------------------------------------------------|
|-9---------9------------------------------------------------------------|
|-9---------9------------7-7-7-7-7-7-7-7-7-7-----------------------------|
|-7---------7------------7-7-7-7-7-7-7-7-7-7-----------------------------|
|------------------------5-5-5-5-5-5-5-5-5-5-----------------------------|

VERSE1
Guitar1
|------------------------------------------------------------------------|
|------------------------------------------------------------------------|
|------------------------------------------------------------------------|
|-----------------------------------------------------14---------14------|
|-9-9-9-11--9-9-9-9-11---9-9-9-11--9-9-9-9-11---14-12-14---14-12-14------|
|-----------------------------------------------------12---------12------|
Guitar2
|------------------------------------------------------------------------|
|------------------------------------------------------------------------|
|-9----------------------------------------------------------------------|
|-9(let it ring)--------------------------------7-7-7-7-7-7-7-7-7-7------|
|-7---------------------------------------------7-7-7-7-7-7-7-7-7-7------|
|-----------------------------------------------5-5-5-5-5-5-5-5-5-5------|
 -Di ko sinabi pero may nagsabi                -Pero ewan ko 
    gusto mo yata parati kang kasali              pero ewan ko 


REFRAIN
Guitar1
|------------------------------------------------------------------------|
|------------------------------------------------------------------------|
|------------------------------------------------------------------------|
|--------------6---------7---------6---------7---------------------------|
|--------------6---------7---------6---------7---------------------------|
|--------------4---------5---------4---------5---------------------------|
  Pero napapansin mo na yata,       Nakakahiya naman,  

|------------------------------------------------------------------------|
|------------------------------------------------------------------------|
|------------------------------------------------------------------------|
|-6------------7---------------9-----------------------------------------|
|-6------------7---------------7-----------------------------------------|
|-4------------5---------------7-----------------------------------------|
 Gusto lang naman kitang pigilan
Guitar2
(the same as guitar1)


CHORUS:
Guitar2
|------------------------------------------------------------------------|
|------------------------------------------------------------------------|
|-9----------------------------------------------------------------------|
|-9----------9---------11----------7-------------------------------------|
|-7----------9---------11----------7-------------------------------------|
|------------7---------9-----------5-------------------------------------|
   Napapalingon tuwing ika'y dumadaan
                                     Guitar1
                                     |----------------------------------|
                                     |----------------------------------| 
                                     |-9-7-----9-7----------------------|
                                     |-----7-------7--7-----------------|
                                     |----------------------------------|
                                     |----------------------------------|
Guitar1&2
|------------------------------------------------------------------------|
|------------------------------------------------------------------------|
|------------------------------------------------------------------------|
|-------4-----------6-------------7--------------------------------------|
|-------4-----------6-------------7--------------------------------------|
|-------2-----------4-------------5--------------------------------------|
  alam kong di pwepwedeng maging tayo  
|------------------------------------------------------------------------|
|------------------------------------------------------------------------|
|------------------------------------------------------------------------|
|-------4-----------6-------7------------9-------------------------------|
|-------4-----------6-------7------------9(break)------------------------|
|-------2-----------4-------5------------7-------------------------------|
     pero minsan naiiba ang ikot ng, ang ikot ng mundo

(Repeat INTRO)
ADLIB
(the same as INTRO)

yun lang... sori po.. kasi nagmamadali na ko.. may pasok pa ko... bsta musta n lng jan
sa mga kalase ko sa delos santos!! mga kabanda ko! at syempre ang inspiration ko *mai*
dnt forget to RATE
            
Hard to play? Try these video lessons and learn fast. | Correct




comments powered by Disqus
↑ Back to top | Tablatures and chords are parodies/interpretations of the original songs. You may use it for private study, scholarship, research or language learning purposes only