» » »

Stumbleine Tabs (ver.1)

Artists:  A B C D E F G H I J K L M N O P Q R S T U V W X Y Z # 

Stumbleine Tabs (ver.1)

Smashing Pumpkins
Rating:
0/5 (0 votes)

Hard to play? Try these video lessons and learn fast.
                

This tab took me a hell of a lot of time to figure out so if you have any corrections, comments

Note: I find a thumb pick very usefull in playing this song. 

Listen to the song to figure out when the parts of this tab are played. 

Key:

 / Slide
 
  {Fig. 1}			       {Fig. 2}
Eb-|-----------------------------------|-----------------------------------|
Bb-|-7-------7-------8---------7---0---|-----------------------------------|
Gb-|-----0-----0---0------0--------0---|-----------------------------------|
Db-|---0---------0------0--------0---0-|-----0-----0---0-----0--------0----|
Ab-|-9-----9---------10-----10-9-------|---9-----9---------9--------7------|
Eb-|-----------------------------------|-7-----7-----7---7-----7-5------0--|
 				       
   {Fig.3}                             {Fig. 4}		       
Eb-|-----------------------------------|------------------------------------|
Bb-|-----------------------------------|------------------------------------|
Gb-|---------------------0-----0-------|------------------------------------|
Db-|-----0-----0-----------------------|------0------0----0---0-------0-----|
Ab-|---5-----5-----5---7-----7---------|---10-----10---10--(5)--5---5-----5-|
Eb-|-3-----3-----3---5-----5-----5/8---|-8------8------8----3-----3-----3---|
   
   {Fig.5}                             {Fig.6}
Eb-|-----------------------------------|-------------------------------------|
Bb-|-----------------------------------|-------------------------------------|
Gb-|-----------------------------------|--------0---------------------0------|
Db-|-----0-----0---------0-----0-------|----------------0-------0------------|
Ab-|---7-----7---------9-----9-----9---|-----12-------7-------5-----5--------|
Eb-|-5-----5-----5/7-7-----7-----7-----|-/10------0-5-----0-3-----3-----3/---|


stumbleine
billy corgan
© 1995 cinderful music/chrysalis songs (bmi) 

boredoms in the bathroom shaking out the loose teeth
sally's in the stirrups claiming her destiny
and nobody nowhere understands anything
about me and all my dreams
lost at sea
jack it up judy set your heart alight
mayfair mistress of the satellites
misspent youth-faking up a rampage
to hold off the real slaves
paid off and staid
and what you never knew
can never get to you
so fake it
i'll be your stumbleine
i'll be your super queen
and make you
jukebox f***up hanging round the drugstore
no matter what you say he'll be back for more
mommy's in the manger with the little kids
she's got her reasons, got my forgets
of tears and idle threats
misplaced
and no matter what they do
they can't get to you
so fake it
i'll be your stumbleine
i'll be your super queen
and make you me
come around ruby i could never sleep alone
            
Hard to play? Try these video lessons and learn fast. | Correct




comments powered by Disqus
↑ Back to top | Tablatures and chords are parodies/interpretations of the original songs. You may use it for private study, scholarship, research or language learning purposes only