>
 >
Stumbleine 2

Stumbleine 2 Guitar Tabs

Smashing Pumpkins - Stumbleine 2 chords, tabs, tablatures, lyrics

Guitar lessons | Add/correct | Request | Top 50 tabs Artists:  A B C D E F G H I J K L M N O P Q R S T U V W X Y Z 0-9

Stumbleine 2 Guitar Tabs – Smashing Pumpkins

CD, Sheet music, Poster

Do you like Stumbleine 2? Share with your friends now
ChordsTabsTabs v2Tabs v3
================================================================================
                       S M A S H I N G   P U M P K I N S

                                       -

                               S T U M B L E I N E
================================================================================


                      MELLON COLLIE & THE INFINITE SADNESS
                            (c) Virgin Records (1995)


                              Tune Down a 1/2 Step
                                D# G# C# G A# D#

                                  Tempo = 60 BPM
                               Time Signature = 4/4



                          -----------------------------

                                 PADDY MCMULLAN

                                   Version 1.0
                                18th January 2011
                             -----------------------

                             Tablature Symbols Used:


 p         -  Pull-Off
 (/)       -  Legato Slide (Blank space indicates length of slide)
 \         -  Slide Down to/Down From (Blank space indicates length of slide)
 /         -  Slide Up To/Up From (Blank space indicates length of slide)
 ( )       -  Ghost Note/Tied Note/Implied Note
 REST      -  Rest and sustain rest for duration of blank space


                                   -----------
                                   Song Notes:
                                   -----------

  No two repeats are the same for Guitar 1, so to make the tab less confusing
                    I've included the song time and lyrics.



================================================================================
Part 1: Acoustic Guitar (Fingerstyle)                          [ 00:00 - 00:34 ]
================================================================================


                                       Boredom's in the bathroom shaking out
                                                            the loose teeth
||-------------------------------------|-----------------------------------|
||--7-------7--------8--------7  p 0---|-----------------------------------|
||------0-----0---0------0---------0---|-----------------------------------|
||----0---------0------0--------0----0-|------0-----0---0---0-0--------0---|
||--9-----9---------10-----10-9--------|----9-----9---------9--- \ 7-7-----|
||-------------------------------------|--7-----7-----7---7-----7\ 5-----0-|


                                       Sally's in the stirrups claiming her
                                                                own destiny
|-------------------------------------|-----------------------------------|
|--7-------7--------8--------7  p 0---|-----------------------------------|
|------0-----0---0------0---------0---|-----------------------------------|
|----0---------0------0--------0----0-|------0-----0---0-----0--------0---|
|--9-----9---------10-----10-9--------|----9-----9---------9--- \ 7-7-----|
|-------------------------------------|--7-----7-----7---7-----7\ 5-----0-|


                                  and Nobody nowhere understands anything
|------------------------------------|-----------------------------------|
|--7-------7--------8--------7-------|-----------------------------------|
|------0-----0---0------0--------0---|-----------------------------------|
|----0---------0------0--------0---0-|------0-----0---0-----0----0---0---|
|--9-----9---------10-----10-9-------|----9-----9---9-----9--------7-----|
|------------------------------------|--7-----7-----7---7-----7 \5-----0-|


             about me                  All            my     dreams
|-----------------------------------|----------------------------------------|
|-----------------------------------|----------------------------------------|
|-----------------------------------|----------------------------------------|
|------0---0-0---0------0-----0-----|--------0---0--0------0-----0-----0-----|
|----5-----5----------7-----7---7 / |--10-10-----10----10------5-----5---5-5-|
|--3-----3-----3- / 5-----5-----5 / |--8-------8-------8 p 0-3-----3-----3---|


   Lost        at                 sea
|------------------------------------||
|------------------------------------||
|------------------------------------||
|------0-----0----0-----0-----0----0-||
|----7-----7--------9-9-----9---9p 0-||
|--5-5---5-----5-- /7-----7-----7p 0-||



================================================================================
Part 2:                                                   [ Time 00:34 - 01:10 ]
================================================================================


                                       Jack it up Judy set your heart alight
||------------------------------------|-----------------------------------|
||--7-------7--------8--------7-------|-----------------------------------|
||------0-----0---0------0--------0---|-----------------------------------|
||----0---------0------0--------0---0-|------0-----0---0-----0--------0---|
||--9-----9---------10-----10-9-------|----9-----9---------9---  \7-7-----|
||------------------------------------|--7-----7-----7---7-----7 \5-----0-|


                                      Mayfair mistress of the satellites
|------------------------------------|-----------------------------------|
|--7-------7--------8--------7-------|-----------------------------------|
|------0-----0---0------0--------0---|-----------------------------------|
|----0---------0------0--------0---0-|------0-----0---0-----0--------0---|
|--9-----9---------10-----10-9-------|----9-----9---------9---  \7-7-----|
|------------------------------------|--7-----7-----7---7-----7 \5-----0-|


                                       Misspent youth faking up a rampage
|-------------------------------------|-----------------------------------|
|--7-------7--------8---------7-------|-----------------------------------|
|------0-----0---0-------0--------0---|-----------------------------------|
|----0---------0-------0--------0---0-|------0-----0---0-----0----0---0---|
|--9-----9---------10------10-9-------|----9-----9---9-----9--------7-----|
|-----------------(0)-----------------|--7-----7-----7---7-----7 \5-----0-|


            to hold off            the real                 slaves
|-----------------------------------|---------------------------------------|
|-----------------------------------|---------------------------------------|
|--------------0--------------------|---------------------------------------|
|------0-----0----0-----0-----0-----|--------0----0-0-----0-----0-----0---0-|
|----5-----5----------7-----7---7 / |--10-10-----10---10------5-----5---5---|
|--3-----3-----3- \ 5-----5-----5 / |--8------8-------8 p 0-3-----3-----3---|


   paid  off  and  staid
|------------------------------------||
|------------------------------------||
|-----------------------0-----0------||
|------0-----0----0---------------0--||
|----7-----7--------9-9-----9---9-9 /||
|--5-----5-----5 /  7-----7-----7-- /||



================================================================================
Part 3:                                                   [ Time 01:10 - 01:38 ]
================================================================================


       And what you never knew           can never get to you             so
||------------------------------------|-------------------------------------|
||------------------------------------|-------------------------------------|
||------------------------------0-----|--------0-------0--------0-----0-----|
||--------0-------0-------0---0-------|-----------------------0-----0-------|
||--12-12-------7-------5-----5-------|-----12-------7--- \ 5-5-----5-------|
||--10------0-5-----0-3-----3-----3 / |--10------0-5------0-3-----3-----3 / |


   Fake                it                    I'll be your Stumbleine
|--------------------------------------|------------------------------------|
|--------------------------------------|------------------------------------|
|-------0------0-----------0-----0-----|--------0-------0-------0-----------|
|-------0------0----0----------0-------|------0---------0-------0-----0-----|
|----10-----10---10------5-----5-------|-----12-----7-7-------5-----5---- / |
|--8------8-------8-- \3-----3-----3 / |--10------0-5-----0-3-----3-----3 / |


      I'll be your super queen    and   make               you
|------------------------------------|-------------------------------------|
|------------------------------------|-----------0-------------------------|
|--------0-------0-------0-----0-----|-------0---0-0-----------0-----0---0-|
|--------0-----0-0-------0---0-------|-------0-----0----0----0-0---0-------|
|--12-12-------7-------5-----5-------|----10---------10------5-------------|
|--10------0-5-----0-3-----3-----3 / |--8------8-----8-- \ 3-----3-----3 / |


   Jukebox fuck up hanging 'round the drug store
|-----------------------------------------------||
|-----------------------------------------------||
|--0----------------------------------------0---||
|--0----------------------------------------0---||
|--9-------------------------------------7------||
|--7-------------------------------------5----0-||



================================================================================
Part 4:                                                   [ Time 01:38 - 02:11 ]
================================================================================


                                         No matter what you say he'll be
                                                           back for more
||------------------------------------|-----------------------------------|
||--7-------7--------8--------7-------|-----------------------------------|
||------0-----0---0------0--------0---|------------0----------------------|
||----0---------0------0--------0---0-|------0---------0-----0--------0---|
||--9-----9---------10-----10-9-------|----9-----9---------9---- \7-7-----|
||------------------------------------|--7-----7-----7---7-----7 \5-----0-|


                                       Mommy's in the manger with the
                                                           little kids
|-----------------------------------|-----------------------------------|
|--7-------7--------8--------7------|-----------------------------------|
|------0-----0---0------0--------0--|------------0---------0--------0---|
|----0---------0------0--------0----|------0---0-----0---0-0------------|
|--9-----9---------10-----10-9------|----9-----9---9-----9---- \7-7-----|
|-----------------------------------|--7-----7-----7---7-----7 \5-----0-|


                                  She's got her reasons got my forgets
|------------------------------------|-----------------------------------|
|--7-------7--------8--------7-------|-----------------------------------|
|------0-----0---0------0--------0---|------0-----0---0-----0--------0---|
|----0---------0------0--------0---0-|----------0---------0--------------|
|--9-----9---------10-----10-9-------|----9-----9---9---9-9--------7-----|
|------------------------------------|--7-7---7-----7---7-----7 \5-----0-|


                of tears        and    idle                threats
|-----------------------------------|--------------------------------------|
|-----------------------------------|--------------------------------------|
|------0-----0---0------0-----0-----|--------0------0----------0-----0---0-|
|----0-0---0----------------0-------|------0-------------0-----------------|
|----5-----5---5------7-----7---7 / |--10-10-----10---10-----5-----5---5---|
|--3-----3-----3- / 5-----5-----5 / |--8------8-------8p 0-3-----3-----3---|


     Misplaced and
| |-------------------||
| |-------------------||
|2|------0-----0---0--||
|/|----0--------------||
|4|--7-------7--------||
| |--5-----5-----5- / ||



================================================================================
Part 5:                                                   [ Time 02:11 - 02:54 ]
================================================================================


   And no matter what they do               they can't get to you        so
||------------------------------------|-------------------------------------|
||------------------------------------|-------------------------------------|
||--------0-------0-------0-----0-----|--------0-------0-------0-----0----0-|
||--------------0-------0-----0-------|------0---------------0-----0--------|
||-----12-------7-------5-----5-------|--12-12-------7-----5-5-----5--------|
||--10------0-5-----0-3-----3-----3 / |--10------0-5-----0-3-----3-----3  / |


   Fake                it                 I'll be your Stumbleine
|--------------------------------------|------------------------------------|
|--------------------------------------|------------------------------------|
|-------0-------0----0-----0-----0-----|--------0-------0-------0-----0-----|
|-----0-0-----0-0--------0-----0-------|------0---------------------0-------|
|----10---10-10---10-----5-----5-------|-----12-------7-------5-----5---- / |
|--8------8-------8p 0-3-----3-----3 / |--10------0-5-----0-3-----3-----3 / |


      I'll be your super queen     and  make               you
|------------------------------------|-------------------------------------|
|------------------------------------|-------------------------------------|
|-------0-------0-------0-----0---0--|-------0---0-0----0------0-----0-----|
|-----0-------0---------0---0--------|-----0-----0-----------0-----0-------|
|--12---------7-------5-----5---5- / |--10-----------10------5---------5---|
|--10-----0-5-----0-3-----3-----3- / |--8-----8------8-- \ 3-----3-----3 / |


   Me
|----------------------------------|------------------------------------|
|----------------------------------|--7-------7--------8--------7-------|
|------0-----0---0-----0-------0---|------0-----0---0------0--------0---|
|----0-----0-----------0-----0---0-|----0---------0------0--------0---0-|
|--9-9-----9---9-----9-----7-------|--9-----9---------10-----10-9-------|
|--7-----7-----7---7-----7-5-----0-|------------------------------------|


   Come around Ruby
             I could never sleep alone
|---------------------------------|-------------------||
|------------------------------0--|--(0)--------------||
|------------0---0-----0-------0--|--(0)--------------||
|------0-------0-----0-0---0-0----|--(0)--------------||
|--9-9-----9---9-----9-----7------|--(7)--------------||
|--7-----7-----7---7-----7-5------|--(5)--------------||



During the last half of the second-last bar the tempo gradually decreases to
around 35 BPM.



================================================================================
End
================================================================================


Tab summary:        Part 1
                    Part 2
                    Part 3
                    Part 4
                    Part 5

                    END





Comments


Popular Smashing Pumpkins tabs & chords
1979 2 Bass Tabs
Age Of Innocence Bass Tabs
Once In A While 1 Bass Tabs
Perfect Bass Tabs
Tales Of A Scorched Earth Bass Tabs
Tear 1 Bass Tabs
Freak Intro Tabs
Glynis 1 Tabs
Hello Kitty Kat 1 Tabs
Bodies Ukulele


Song lyrics



↑ Back to top | Tablatures and chords are parodies/interpretations of the original songs. You may use it for private study, scholarship, research or language learning purposes only
© 2014 AZChords.com Contact us | Privacy policy | DMCA | Add/correct tabs | Request tabs | Top 50 tabs