» » »

Starz Tabs (ver.1)

Artists:  A B C D E F G H I J K L M N O P Q R S T U V W X Y Z # 

Starz Tabs (ver.1)

Smashing Pumpkins
Rating:
0/5 (0 votes)

Hard to play? Try these video lessons and learn fast.
                Intro Progression 0:37

Eb------------------------|	
Bb------------------------|	
Gb----------5-5-5-5/7-7-7-|	Pretty sure thats the proper way
Db--2242540-5-5-5-5/7-7-7-|	
Ab--2222220-3-3-3-3/5-5-5-|	
Eb--0000000---------------|
pm  ....... ^ .....


	0:37-				     ***H***
Eb------------------------------------------|-------------------|
Bb------------------------------------------|-------------------|
Gb---55----77-------------------------------|-------------------| Chorus 
Db-2-55-55-77-77------2--5-12\10\5-9\7------|-2--------------2--|
Ab-2-33-55-55-77------2--5-12\10\5-9\7------|-2--------------2--|
Eb-0----33----55h6h7--0--3-10\8-\3-7\5-5h6h7|-0--2/3/4/5--22p0--|
			      ^--could be 355xxx
2:30-2:40
Eb------------------------|
Bb------------------------|
Gb------------------------|
Db--222-555/10------------|
Ab--222-555/10------------|
Eb--000-333/8-------------|


Eb-----------------|		
Bb--5-5--5p3h5p3---| FILL 1
Gb---7-----------4-|

Eb--12p10h12-------|
Bb----------12-----| FILL 2
Gb-----------------|

Eb------------------///15-14-15\\\\\\1------|
Bb------------------------------------------|
Gb--9-7-9\7-9\7-----------------------------|
Db--9-7-9\7-9\7-----------------------------|
Ab--7\5-7\5-7\5-----------------------------|
Eb--000-000-000-----------------------------|


Cory Farrow

					    
            
Hard to play? Try these video lessons and learn fast. | Correct




comments powered by Disqus
↑ Back to top | Tablatures and chords are parodies/interpretations of the original songs. You may use it for private study, scholarship, research or language learning purposes only