>
 >
Starz 2

Starz 2 Guitar Tabs

Smashing Pumpkins - Starz 2 chords, tabs, tablatures, lyrics

Guitar lessons | Add/correct | Request | Top 50 tabs Artists:  A B C D E F G H I J K L M N O P Q R S T U V W X Y Z 0-9

Starz 2 Guitar Tabs – Smashing Pumpkins

CD, Sheet music, Poster

Do you like Starz 2? Share with your friends now
TabsTabs v2Tabs v3
-------------------------------------------------------------------------------
                            STARZ - Smashing Pumpkins
-------------------------------------------------------------------------------

Tuning: Eb

Great song there wasnt a tab so i got my teacher to work it out here it is..

Intro Progression
Palm Mute------------------|
Eb----------------------------------|
Bb----------------------------------|
Gb----------4-4-4-4-5-5-5-5-7-7-7/9-|
Db--2-2-2-2-4-4-4-4-5-5-5-5-7-7-7/9-|
Ab--2-2-2-2-2-2-2-2-3-3-3-3-5-5-5/7-|
Eb--0-0-0-0-------------------------|

This is played a couple of times then there is just an Eb chord let ring

Chorus
Eb------------------------------------------|
Bb------------------------------------------|
Gb--7-------7-------------------------------|
Db--7-5--5--7-7--7--------2--2-keep-------5-|keep struming
Ab--5-5--5--5-7--7--------2--2-strumming--5-|the repeat
Eb----3--3----5--5--5-6-7-0--0-this chord-3-|

In the solo bits is usualy just another Gb chord stummed

Thats about it.. Enjoy





Comments


Popular Smashing Pumpkins tabs & chords
1979 Bass Tabs
Jakie Blue Bass Tabs
Jennifer Ever Bass Tabs
Mayonaise 3 Chords
Obscured Chords
Daydream 2 Tabs
Pennies Tabs
Starz 1 Tabs
Thirty Three Tabs
Bye June Ukulele


Song lyrics



↑ Back to top | Tablatures and chords are parodies/interpretations of the original songs. You may use it for private study, scholarship, research or language learning purposes only
© 2014 AZChords.com Contact us | Privacy policy | DMCA | Add/correct tabs | Request tabs | Top 50 tabs