» » »

Stand Inside Your Love Tabs (ver.3)

Artists:  A B C D E F G H I J K L M N O P Q R S T U V W X Y Z # 

Stand Inside Your Love Tabs (ver.3)

Smashing Pumpkins
Rating:
0/5 (0 votes)

Tabs too difficult? Try these video lessons and learn fast.
                The Smashing Pumpkins
Stand inside your love (Solo)
Off MACHINA – the machines of God (2000)
Written by Billy Corgan

OK, so there´s already a very accurate version of
this song on the page, I did the solo. You might
be wondering but James is playing this solo like
he´s playing every solo on the two last official
Pumpkins records. 


Detune to Eb


Guitar 1: Billy
Guitar 2: James



Pre – Solo:

Billy + James
|-----------------0----0---|
|-----------------3----0---|
|--12----11--7----2----0---|
|-----------------0----2---|
|--10----9---5---------2---|
|----------------------0---|



Solo:

Played with harmonizer

James
|-----------------------------------------------------|
|-----------------------------------------------------|
|--11~~~~~~~~~~~~~~~~/14~~~~\9~~~~\7~\4~~\2~~~~~~~~---|
|-----------------------------------------------------|
|-----------------------------------------------------|
|-----------------------------------------------------|

James
|------------------------------------------------------|
|------------------------------------------------------|
|--/16~~~~~~~~\14~~~~~~~~/19~~/21~~~~~~~~\14~~~~~~~~---|
|------------------------------------------------------|
|------------------------------------------------------|
|------------------------------------------------------|



During the Solo Billy plays:

Billy
|----------------------------------------------------|
|----------------------------------------------------|
|--12-12-12-12-12-12-12-12-12-12-12-12-12-12-12-12---|
|--x--x--x--x--x--x--x--x--x--x--x--x--x--x--x--x----|
|--10-10-10-10-10-10-10-10-10-10-10-10-10-10-10-10---|
|----------------------------------------------------|

Billy
|--------------------------------------------|
|--------------------------------------------|
|--11-11-11-11-11-11-11-11-7-7-7-7-7-7-7-7---|  repeat all this
|--x--x--x--x--x--x--x--x--x-x-x-x-x-x-x-x---|
|--9--9--9--9--9--9--9--9--5-5-5-5-5-5-5-5---|
|--------------------------------------------|





"Despite all my rage I´m still just a rat in a cage"
            
Tabs too difficult? Try these video lessons and learn fast.


comments powered by Disqus
↑ Back to top | Tablatures and chords are parodies/interpretations of the original songs. You may use it for private study, scholarship, research or language learning purposes only