» » »

Smashing Pumpkins, Stand Inside Your Love Bass tabs (ver.1)

Artists:  A B C D E F G H I J K L M N O P Q R S T U V W X Y Z # 

Stand Inside Your Love Bass tabs (ver.1)

Smashing Pumpkins Tabs
 Rating:
4/5 (4 votes)
Stand Inside Your Love lessons Tabs too difficult? Try these video lessons and learn fast
1
                                Smashing Pumpkins: Stand inside your love


 Downtuned a half-step (as you can see). Pretty damn easy song, theres a
couple of fills but I'm sure you'll work them out :o)

  
 Fig 1.                                                                        
Gb--|--|--------------------------------------|-------------------------
Db--|--|--------------------------------------|-------------------------
Ab--|--|--------------------------------------|-------------------------
Eb--|--|--2-----0--2-----0--7-----5--7-----5--|-------------------------
                                                                        

 Fig 2.                                                                       
Gb----------------------------------------------------------------------
Db----------------------------------------------------------------------
Ab-----------------------------------------5--5-----5--5--5-------------
Eb--3--3-----3--3--3-----7--7-----7--7--7--------------------5--5-------
                                                                        

                                                                        
Gb-----------|----------------------------------------------------------
Db-----------|----------------------------------------------------------
Ab-----------|----------------------------------------------------------
Eb--5--5--5--|----------------------------------------------------------
                                                                        

 Fig 3.                                                                       
Gb----------------------------------------------------------------------
Db----------------------------------------------------------------------
Ab--7--7-----7--7--7-----7-----7--7-----7--7--7-----5--5-----5--5--5----
Eb----------------------------------------------------------------------
                                                                        

                                                                        
Gb-----------------------|----------------------------------------------
Db-----------------------|----------------------------------------------
Ab-----0--0-----0--0--0--|----------------------------------------------
Eb-----------------------|----------------------------------------------
                                                                        

 That's all there is to it.


========================================================================
==                       TABLATURE EXPLANATION                        ==
========================================================================

----------                ----------                ----t---
----5h8--- Hammeron       ----(8)--- Ghost          ----6--- Tap
----------                ---------- Note           --------
----5p8--- Pulloff        ----------                --------

----------                ----------                -----p--
----5/8--- Slide Up       -----x---- Dead           -----7-- Pop
----------                ---------- Note           --s-----
----5\8--- Slide Down     ----------                --5----- Slap 

----------                ||------|| Repeat         --------
----5~~~-- Vibrato        ||*----*||                ---5^--- Bend
----------                ||*----*||                --------
----------                ||------||                --------

----------                ----------                --------
-4:------- Time           ----------                --------
-4:------- Signature      ----------                --------
----------                ----------                --------

========================================================================
==               Created with BUCKET O' TAB for Windows               ==
========================================================================
            
Submit corrections

comments powered by Disqus
↑ Back to top | Smashing Pumpkins Bass for Stand Inside Your Love. Lyrics for acoustic guitar and electric guitar. 1 Tablatures and chords are parodies/interpretations of the original songs. You may use it for private study, scholarship, research or language learning purposes only