>
 >
Set The Ray To Jerry 1

Set The Ray To Jerry 1 Bass Tabs

Smashing Pumpkins - Set The Ray To Jerry 1 chords, tabs, tablatures, lyrics

Guitar lessons | Add/correct | Request | Top 50 tabs Artists:  A B C D E F G H I J K L M N O P Q R S T U V W X Y Z 0-9

Set The Ray To Jerry 1 Bass Tabs – Smashing Pumpkins

CD, Sheet music, Poster

Do you like Set The Ray To Jerry 1? Share with your friends now
Bass Tabs
Tunning: Eb Ab Db Gb

Easy song...kind of cool bass line too.

Riff 1
Gb|---------------------------------------------|
Db|---------------------------------------------|
Ab|------------------------------------4-4-4-4--|
Eb|0h4-4-4-4-4-4-7-7-7-7-0-0-0-0h2-2-2----------|

After Riff 1 their is a small Fill I play this Fill up
on the 12th fret but you can use the 7th fret on the A
String if it would be easier for you. This is used throught the whole
song, if you miss it its no big deal. It will sound fine without it.

Fill 1    Here is what it would look like using A string 
Gb|-----------------|--------------|
Db|-----------------|--------------|
Ab|-----------------|7-7------7-7--|
Eb|12-12-0-0-12-12--|----0-0-------|

This is the Chorus Part(During "And i want you, And i need you"  stuff)

Riff 2
Gb|---------------------------------------------|
Db|---------------------------------------------|
Ab|---------------------------------------------|
Eb|0h4-4-4-4-4-4-7-7-7-7-0-0-0h2-2-2-2-5-5-5-5--|

After the chorus is over play a quick Fill 1 then go to Riff 1
If you decide to use the Fill it is used after you finish Riff 1
Everytime. After you play Riff 1 a couple of times Go to Riff 2
for the chorus. Right Before billy Sings "Well you say that you are
forever my star" Before that start into this Riff

Riff 3
Gb|-----------------------------------------------------------|
Db|-----------------------------------------------------------|
Ab|-----------------------------4-4-4-4-4-4-------------------|
Eb|0-0-0-0h4-4-4-4-4-4-7-7-7-7---------------0-0-0-0-0-0-0-0--|

After you play that Billy sings "Let roar these fears...." when he sings
that go back up to Riff 1(Note: using Fill 1 when needed) after that is 
played a bit billy will start in the Chorus when this happens play Riff 2.
Then he will sing "Well you say that you are..." When he sings this Play
Riff 3. End the Song with a Riff 2.

This tab was made by Nathan Amber. Send Questions/Comments to





Comments


Popular Smashing Pumpkins tabs & chords
Jennifer Ever Bass Tabs
Song For A Son Bass Tabs
Glass And The Ghost Children Chords
Jupiters Lament 1 Chords
The Celestials 1 Chords
Cherub Rock 1 Tabs
Dancing In The Moonlight 1 Tabs
Depresso Tabs
Mayonaise 3 Tabs
The End Is The Beginning Is The End Live Tabs


Song lyrics



↑ Back to top | Tablatures and chords are parodies/interpretations of the original songs. You may use it for private study, scholarship, research or language learning purposes only
© 2014 AZChords.com Contact us | Privacy policy | DMCA | Add/correct tabs | Request tabs | Top 50 tabs