» » »

Set The Ray To Jerry Tabs (ver.1)

Artists:  A B C D E F G H I J K L M N O P Q R S T U V W X Y Z # 

Set The Ray To Jerry Tabs (ver.1)

Smashing Pumpkins
Rating:
0/5 (0 votes)

Hard to play? Try these video lessons and learn fast.
                the Smashing Pumpkins
Set the Ray to Jerry
Off 1979 (1995)/
the Aeroplane flies high (1996)/
Judas 0 (2001)
Written by Billy Corgan
Eb

Just some doubled clean guitar with little delay.


Intro:

|--------------------|
|----0---0---0---0---|
|--8---8---8---8-----| 4 times
|--------------------|
|--------------------|
|--------------------|

|------------|
|----0---0---|
|--9---9-----|
|------------|
|------------|
|------------|


Verse:
                 2x
|------------------|-----------|
|----0---0---0---0-|---0---0---|
|--8---8---8---8---|-9---9-----| 4 times
|------------------|-----------|
|------------------|-----------|
|------------------|-----------|

"Born to please…"


Chorus:
                    7x
|----------------0----|---------0---|
|--0--------0---------|-0-----------|
|----11-------11------|---11--------|
|-------13---------13-|------13-----|
|---------------------|-------------|
|---------------------|-------------|

"And I - want you…"


Verse:
                 2x
|------------------|-----------|
|----0---0---0---0-|---0---0---|
|--8---8---8---8---|-9---9-----| 5 times
|------------------|-----------|
|------------------|-----------|
|------------------|-----------|

"Come to me…"


|--------------------|
|----0---0---0---0---|
|--8---8---8---8-----| 2 times
|--------------------|
|--------------------|
|--------------------|


Chorus:
                   15x
|----------------0----|---------0---|
|--0--------0---------|-0-----------|
|----11-------11------|---11--------|
|-------13---------13-|------13-----|
|---------------------|-------------|
|---------------------|-------------|

"And I - want you…"


Verse: same as first verse

break

Outro:
                   23x
|----------------0----|---------0---|
|--0--------0---------|-0-----------|
|----11-------11------|---11--------|
|-------13---------13-|------13-----|
|---------------------|-------------|
|---------------------|-------------|

"And I - want you…"
            
Hard to play? Try these video lessons and learn fast. | Correct




comments powered by Disqus
↑ Back to top | Tablatures and chords are parodies/interpretations of the original songs. You may use it for private study, scholarship, research or language learning purposes only