>
 >
Pastichio Medley

Pastichio Medley Guitar Tabs

Smashing Pumpkins - Pastichio Medley chords, tabs, tablatures, lyrics

Guitar lessons | Add/correct | Request | Top 50 tabs Artists:  A B C D E F G H I J K L M N O P Q R S T U V W X Y Z 0-9

Pastichio Medley Guitar Tabs – Smashing Pumpkins

CD, Sheet music, Poster

Do you like Pastichio Medley? Share with your friends now
TabsTabs v2
Smashing Pumpkins


I'm not sure about the names of the song's.  I ended up with more tab figures than
song names so I combined a couple that sounded like they could have been from the
same song.  The times are correct though.  

Song Order:
The Demon
Thunderbolt
Dearth
Knuckles
Star Song
Firepower
New Waver
Space Jam
Zoom
So Very Sad About Us
Phang
Speed Racer
The Eternal E
Hairy Eyeball
The Groover
Hell Bent For Hell
Rachel
A Dog's Prayer
Blast
The Balck Rider
Slurpee
Flipper
The Viper
Bitch
Fried
Harmonio
USA
The Tracer
Envelope Woman
Plastic guy
Glasgow 3am
The Road is Long
Funkified
Rigamarole
Depresso
The Streets are Hot Tonite
Dawn at 16
Spazmatazz
Fucker
In the Arms of Sheep
Speed
77
Me Rock You Snow
Fellium
Is Alex Milton
Rubberman
Spacer
Rock Me
Weeping Willowy
Rings
So So Pretty
Lucky Lad
Jackboot
Millieu
Disconnected
Let your Laser Love shine down
Phreak
Porkbelly
Robot Lover
Jimmy James
America
Slinkeepie
Dummy Tum Tummy
Fakir
Jake
Camaro
Moonkids
Make it fungus
V-8
Die


The Demon (0:00 - 0:10)
Tune Down 1/2 Step and drop D: Db Ab Db Gb Bb Eb

Play 4x
|------------------------------------|
|------------------------------------|
|------------------------------------|
|------------------------------------|
|-5-------3-------------------3------|
|--3-5-6----3-5-6--5-6-5-3--5---5-3--|


Thunderbolt (0:00 - 0:24)
Tune Down 1/2 Step: Eb Ab Db Gb Bb Eb

Guitar 2 plays G5 chord throughout:
|-x--|
|-x--|
|-12-|
|-12-|
|-10-|
|-x--|

Guitar 1 repeats this riff with a few variations:
|---------------------------------------------|
|---------------------------------------------|
|---------------------------------------------|
|-12-12--9-10-10-9-9---12-12------------------|
|----------------------------10-12-12-10-10---|
|---------------------------------------------|


Dearth (0:25 - 0:36)
Tune Down 1/2 Step: Eb Ab Db Gb Bb Eb

Play 4x
|----------------------------|
|----------------------------|
|----------------------------|
|----------------------------|
|----------------------------|
|-0-2-2-0-2-2-0-2-0-2-0-2-1--|


Knuckles (0:37 - 0:52)
Tune Down 1/2 Step and drop D: Db Ab Db Gb Bb Eb

Guitar 2 plays a D5 chord throughout:
|---|
|---|
|---|
|-0-|
|-0-|
|-0-|

Guitar plays these two notes throughout:
|---------|
|---------|
|-13--12--|
|---------|
|---------|
|---------|


Star Song (0:53 - 1:15)
Tune Down 1/2 Step: Eb Ab Db Gb Bb Eb

Chord Fingerings:
   F5 E5 A5 G#5 C5 D5
E| x  x  x  x   x  x
B| x  x  x  x   x  x
G| x  x  x  x   x  x
D| 3  2  7  6   10 12
A| 3  2  7  6   10 12
E| 1  0  5  4   8  10

Guitar 2 plays these chords:
|F5 E5 |A5 G#5 |F5 E5 |C5 D5 |F5 E5 |A5  |
Drum Fill
|F5 E5 |

Guitar 1 plays a short solo,
sorry don't have it yet.


Firepower (1:16 - 1:28)
Tune Down 1/2 Step and drop D: Db Ab Db Gb Bb Eb

This is just a lot of feedback, probably at
the end of a song that sounds, to me, like it's in D.

D5
|---|
|---|
|---|
|-0-|
|-0-|
|-0-|


New Waver (1:29 - 1:57)
Tune Down 1/2 Step: Eb Ab Db Gb Bb Eb

Chord Fingerings:
   C#5 F5  C5 F# C# C
E| x   x   x  x  x  x
B| x   x   x  x  x  x
G| 6   10  5  11 6  5
D| 6   10  5  x  x  x
A| 4   8   3  9  4  3
E| x   x   x  x  x  x

|C#5 |F5 |C5 |C5 |

|F# C# |F# C# |C C# |


Fig1
Play 4x
|------------|
|------------|
|------------|
|------------|
|-3-3-3-3-3--|
|------------|

Fig2
Play 2 1/2x
|---------------------------------------------|
|---------------------------------------------|
|---------------------------------------------|
|---------------------------------------------|
|---------------------------------------------|
|-12-0-10-12-0-10-12-0--12-0-10-12-0-10-12-0--|


Space Jam (1:58 - 2:16)
Tune Down 1/2 Step and drop D: Db Ab Db Gb Bb Eb

Play 4x
|--------------------------------|
|--------------------------------|
|--------------------------------|
|--------------------------------|
|-------------3-3----------------|
|-0-0-5-4-3-0-----5-4-3-3-2-1-0--|


Zoom (2:17 - 2:27)
Tune Down 1/2 Step and drop D: Db Ab Db Gb Bb Eb

Play 4x
|------------------|
|------------------|
|------------------|
|------------------|
|------------------|
|-2-0-2-0-2-0-2-2--|


So Very Sad About Us (2:28-2:47)
Tune Down 1/2 Step: Eb Ab Db Gb Bb Eb

Chord Fingerings:
   E5 G5 A5 C5 F5
E| x  x  x  x  x
B| x  x  x  x  x
G| x  x  x  x  x
D| 2  5  7  10 3
A| 2  5  7  10 3
E| 0  3  5  8  1

Guitar 2:
|E5  G5 A5 |E5  G5 A5 |E5  |
|E5  G5 A5 |E5  G5 A5 |E5  G5 A5 |

|F5 C5 |G5  |F5 C5 |G5  |

Fig1 (play at F5 chord)
|------------------------------------------------------|
|------------------------------------------------------|
|-------5-5-5----------------------5-5-5-------7-7-7-7-|
|-3-3-3-------5-5-5-5-5-5-5--3-3-3-------5-5-5---------|
|------------------------------------------------------|
|------------------------------------------------------|


Phang (2:48-3:02)
Tune Down 1/2 Step and drop D: Db Ab Db Gb Bb Eb

|-------------------------------|
|-------------------------------|
|-------------------------------|
|-------------------------------|
|-------------------------------|
|-0-3-4-5-5-6-7-7-7-7-10-10-10--|


Speed Racer (3:03-3:17)
Tune Down 1/2 Step: Eb Ab Db Gb Bb Eb

Bass
|-------------------|
|-------------------|
|-------------------|
|-0-0-3-4--0-0-3-4--|

Guitar comes in at 3:14
|------------------|
|-------14-13------|
|------------------|
|-12----------12---|
|------------------|
|------------------|


The Eternal E (3:18 - 3:22)
Tune Down 1/2 Step: Eb Ab Db Gb Bb Eb

 C5
|----------------------------------------------------|
|-------13--13---------------------------------------|
|-12-14--------14-12-13-12--14-13-12-------------13--|
|-------------------------------------14--12-14------|
|----------------------------------------------------|
|----------------------------------------------------|


Hairy Eyeball (3:23 - 4:03)
Tune Down 1/2 Step and drop D: Db Ab Db Gb Bb Eb

Chord Fingerings:
   C#5 D#5 F5
E| x   x   x
B| x   x   x
G| 6   x   x
D| 6   1   3
A| 4   1   3
E| x   1   3

|C#5 |C#5 |D#5 F5 |
|C#5 |C#5 |D#5 F5 |
|C#5 |C#5 |D#5 F5 |
|C#5 |C#5 |D#5 F5 |
|C#5 |C#5 |D#5 F5 |
|C#5 |C#5 |

Guitar 1 plays a crazy solo, I'm not going to even try it


The Groover (4:04-4:19)
Tune Down 1/2 Step: Eb Ab Db Gb Bb Eb

|-------------------------------|
|-------------------------------|
|-------------------------------|
|---------12-12-12-12-12-12-12--|
|-----10--12-12-12-12-12-12-12--|
|-0-0-----10-10-10-10-10-10-10--|



Hell Bent for Hell (4:20-4:36)
Tune Down 1/2 Step and drop D: Db Ab Db Gb Bb Eb

Play 3x
|-------------------------------------------|
|-------------------------------------------|
|-------------------------------------------|
|-4-4-1-1-1--4-4-1-1-1--4-4-1-1-1--4-1-5-1--|
|-4-4-1-1-1--4-4-1-1-1--4-4-1-1-1--4-1-5-1--|
|-4-4-1-1-1--4-4-1-1-1--4-4-1-1-1--4-1-5-1--|



Rachel (4:37-5:26)
Tune Down 1/2 Step and drop D: Db Ab Db Gb Bb Eb

Chord Fingerings:
   E5 G5 G#5 D5 A5
E| x  x  x   x  x
B| x  x  x   x  x
G| x  x  x   7  x
D| 2  5  6   7  7
A| 2  5  6   5  7
E| 0  3  4   x  5

|E5 G5 G#5 |
|E5 G5 G#5 |D5 A5 |
|E5 G5 G#5 |
|E5 G5 G#5 |D5 A5 |

|E5 G5 G#5 |E5 G5 G#5 |
|E5 G5 G#5 |E5 G5 G#5 |
|E5 G5 G#5 |E5 G5 G#5 |

Fig1

|E5 G5 G#5 |
|E5 G5 G#5 |D5 A5 |
|E5 G5 G#5 |
|E5 G5 G#5 |D5 A5 |

|E5 G5 G#5 |E5 G5 G#5 |
|E5 G5 G#5 |E5 G5 G#5 |
|E5 G5 G#5 |E5 G5 G#5 |
|E5 G5 G#5 |E5 G5 G#5 |
|E5 G5 G#5 |E5 G5 G#5 |
|E5 G5 G#5 |E5 G5 G#5 |

Fig1
|----------------------------------|
|-12-12-11-11-10-10-9-9-8-8-8-9-8--|
|----------------------------------|
|----------------------------------|
|----------------------------------|
|----------------------------------|



A Dog's Prayer (5:27-5:48)
Tune Down 1/2 Step: Eb Ab Db Gb Bb Eb

Chord Fingerings:
   D#5 F5 C5 G5
E| x   x  x  x
B| x   x  x  x
G| 8   10 5  12
D| 8   10 5  12
A| 6   8  3  10
E| x   x  x  x

|D#5 F5 |G5  |C5   |
|D#5 F5 |G5  |C5   |
|D#5 F5 |G5  |C5   |
|D#5 F5 |G5  |C5


Blast (5:49-5:59)
Tune Down 1/2 Step: Eb Ab Db Gb Bb Eb

Chord Fingerings:
   F#5 E5
E| x   x
B| x   x
G| x   x
D| 4   2
A| 4   2
E| 2   0

|F#5 |F#5 |E5 |E5 |
|F#5 |F#5 |E5 |E5 |


The Black Rider (6:00 - 6:17)
Tune Down 1/2 Step: Eb Ab Db Gb Bb Eb

Chord Fingerings:
   D5 G5 Bb5 A5 C5
E| x  x  x   x  x
B| x  x  x   x  x
G| 7  x  x   x  5
D| 7  5  8   7  5
A| 5  5  8   7  3
E| x  3  6   5  x

|D5 G5 |Bb5 |
|D5 G5 |Bb5 |
|D5 G5 |Bb5 |
|A5 C5 |G5  |



Slurpee (6:18-6:39)
Tune Down 1/2 Step: Eb Ab Db Gb Bb Eb

Fig1
|-----------------------------------------------------------------------------------|
|-----------------------------------------------------------------------------------|
|-------9-9-11-11-13-13--6-6-6--------------9-9-11-11-13-13-6-6-6----------6-4------|
|-2-2-2------------------6-6-6-7-6-7--2-2-2-----------------6-6-6-7-6-7--2-6-4---4--|
|-2-2-2-7-7-9--9--11-11--4-4-4-7-6-7--2-2-2-7-7--9--9-11-11-4-4-4-7-6-7--2-4-2---4--|
|-0-0-0------------------------5-4-5--0-0-0-----------------------5-4-5--0-----0-2--|

|-------------------------------|
|-------------------------------|
|-9-9-11-11-13-13--6-6-6--------|
|------------------6-6-6-7-6-7--|
|-7-7-9--9--11-11--4-4-4-7-6-7--|
|------------------------5-4-5--|


Flipper (6:40-6:48)
Tune Down 1/2 Step: Eb Ab Db Gb Bb Eb

Chord Fingerings:
   Cadd2 G/B  E5 G5 B5
E| 0     3    x  x  x
B| 3     3    x  x  x
G| 0     0    x  x  x
D| 2     0    2  5  9
A| 3     2    2  5  9
E| x     x    0  3  7

|Cadd2 G/B |
|E5 (with Fig1) |G5 B5 |

Fig1
|-----------|
|-----------|
|-10-9-9-7--|
|-----------|
|-8--7-7-5--|
|-----------|


The Viper (6:50-6:56)
Tune Down 1/2 Step: Eb Ab Db Gb Bb Eb

|-----------------------------------------|
|-----------------------------------------|
|-----------------------------------------|
|-2---------------------------------------|
|-2---------7--------------------------7--|
|-0---0-0-0---0-0-3-4-5-0-5-6-7--0-0-0----|



Bitch (6:57-7:06)
Tune Down 1/2 Step: Eb Ab Db Gb Bb Eb

Play 3x
|---------------------------------------|
|---------------------------------------|
|-----------------------------10-10-13--|
|---------------------------------------|
|----14-14-14-14-14-14-14-14--8--8--11--|
|-14------------------------------------|



Fried (7:07-7:16)
Tune Down 1/2 Step: Eb Ab Db Gb Bb Eb

Play 3x
|----------------|
|----------------|
|----------------|
|-5-5-6-6-7-7-8--|
|-5-5-6-6-7-7-8--|
|-3-3-4-4-5-5-6--|


Harmonio (7:17 - 7:24)
Tune Down 1/2 Step: Eb Ab Db Gb Bb Eb

Play 2x
|-1----------1-----------|
|-1------1-4---4-1-------|
|-2--2-3-----------3-2---|
|-3----------------------|
|-3----------------------|
|-1----------------------|



U.S.A. (7:25-7:36)
Tune Down 1/2 Step: Eb Ab Db Gb Bb Eb

|-----------------------|
|-----------------------|
|-----------------------|
|-7-6-4-0-2--7-6-4-0-2--|
|-----------------------|
|-----------------------|


The Tracer (7:37-7:49)
Tune Down 1/2 Step: Eb Ab Db Gb Bb Eb

Chord Fingerings:
   A5 E5
E| x  x
B| x  x
G| x  x
D| 7  2
A| 7  2
E| 5  0

2/4 time

|A5 |A5 |A5 |E5 |A5 |E5 |A5 |A5 |A5 |E5 |


Envelope Woman (7:50 - 8:00)
Tune Down 1/2 Step: Eb Ab Db Gb Bb Eb

Play 4x
|--------------------|
|--------------------|
|-14-13--12-7-9-9-9--|
|--------------------|
|-12-11--10-5-7-7-7--|
|--------------------|


Plastic Guy (8:01-8:10)
Tune Down 1/2 Step: Eb Ab Db Gb Bb Eb

Chord Fingerings:
   F5 C5
E| x  x
B| x  x
G| x  5
D| 3  5
A| 3  3
E| 1  x

Fig1
|-----------------|
|----------6------|
|-5--5-6-5---3-5--|
|---------7-------|
|-----------------|
|-----------------|

|F5 C5 |F5 C5 |F5 C5 |


Glasgow 3am (8:11 - 8:17)
Tune Down 1/2 Step: Eb Ab Db Gb Bb Eb

This song is way beyond my tabbing capabilities, even the
bass part is hard.  All I can tell you is that the song
is probably in C, and this samll bit revolves around this
C7 chord although it is not actually played, the 7ths
(and other chord harmonies) are are hit by the bass on
the low E string when it bounces around between C, Bb, G, and E.

   C7
E| 0
B| 1
G| 3
D| 2
A| 3
E| x


The Road is Long (8:18 - 8:26)
Tune Down 1/2 Step: Eb Ab Db Gb Bb Eb

|--------------------------------|
|--------------------------------|
|-11-13--14--15-16--15-15-16-15--|
|--------------------------------|
|--------------------------------|
|--------------------------------|


Funkified (8:27 - 8:35)
Tune Down 1/2 Step: Eb Ab Db Gb Bb Eb

Chord Fingerings:
   G5 E5
E| x  x
B| x  x
G| x  x
D| 5  2
A| 5  2
E| 3  0

Fig1
|-------------------------------------------|
|-------------------------------------------|
|---------4---------4----------1---------1--|
|-5-7-5-7---5-7-5-7----2-4-2-4---2-4-2-4----|
|-------------------------------------------|
|-------------------------------------------|

(with Fig1)
|G5 |E5 |E5 |


Rigamarole (8:36 - 8:46)
Tune Down 1/2 Step: Eb Ab Db Gb Bb Eb
   A5 C5 F5
E| x  x  x
B| x  x  x
G| x  x  x
D| 7  10 3
A| 7  10 3
E| 5  8  1

|A5 C5 |A5 C5 |A5 F5 |A5 |



Depresso (8:47-9:03)
Tune Down 1/2 Step: Eb Ab Db Gb Bb Eb
   B5 E5 D5 G5
E| x  x  x  x
B| x  x  x  x
G| 4  9  7  12
D| 4  9  7  12
A| 2  7  5  10
E| x  x  x  x

Fig1
|--------------|
|--------------|
|-12-11-9-7-7--|
|--------------|
|-10-9--7-5-5--|
|--------------|

|B5 |E5 |B5 |E5 D5 |G5  |Fig1 |


The Streets Are Hot Tonite (9:04 - 9:16)
Tune Down 1/2 Step: Eb Ab Db Gb Bb Eb

|--------------------------------------------|
|--------------------------------------------|
|--------------------------------------------|
|--------------------------------------------|
|-9-11-11-11-11-12-12-12-11-12--4-5-5-5-5-2--|
|-7-9--9--9--9--10-10-10-9--10--2-3-3-3-3-0--|



Dawn at 16 (9:17-9:39)
Tune Down 1/2 Step: Eb Ab Db Gb Bb Eb

repeat
 E5
|--------------------|
|--------------------|
|-9-----9-----9------|
|-9-----9-----9------|
|-7-----7-----7------|
|---0-0---0-0---0-0--|



Spazmatazz (9:40-9:49)
Tune Down 1/2 Step: Eb Ab Db Gb Bb Eb

Play 3x
  E5          E5 B5 D5  D#5
|----------------------------|
|---------7-9----------------|
|-9-9-9-9------9----7-7-8-8--|
|-7-7-7-7------9-9--7-7-8-8--|
|-7-7-7-7------7-9--5-5-6-6--|
|----------------7-7---------|


Fucker (9:52 - 9:59)
Tune Down 1/2 Step and drop D: Db Ab Db Gb Bb Eb

|------------|
|------------|
|------------|
|-1-1-1---1--|
|-1-1-1-1----|
|-1-1-1------|

|-------------------------|
|-------------------------|
|-------------------------|
|---4-6-6-6-6--4-6-6-6-6--|
|---4-6-6-6-6--4-6-6-6-6--|
|-2-4-6-6-6-6--4-6-6-6-6--|



In the Arms of Sheep (10:01 - 10:16)
Tune Down 1/2 Step: Eb Ab Db Gb Bb Eb

Chord Fingerings:
   E
E| 7
B| 9
G| 9
D| 9
A| 7
E|(0)

|E |E |E |E |E |
             Come back baby

Speed (10:17-10:39)
Tune Down 1/2 Step: Eb Ab Db Gb Bb Eb

Chord Fingerings:
   A  D
E| 5  10
B| 5  10
G| 6  11
D| 7  12
A| 7  12
E| 5  10

|A |A |A |A |A |A |
|A |A |A |A |A |A |
|A D |A D |A D |A D |A D |


77 (10:40-10:51)
Tune Down 1/2 Step: Eb Ab Db Gb Bb Eb

 Bm           Em          C            G             Bm
|-----------------------------------------------------------------|
|-------3-------------0---------1-------------3------------3------|
|-----4---4-------------------0---0-------------0--------4---4----|
|---4-------4------2--------2-------2------0-----0-----4-------4--|
|-2--------------2--------3--------------2-----------2------------|
|--------------0-----------------------3--------------------------|


Me Rock You Snow (10:51-11:02)
Tune Down 1/2 Step: Eb Ab Db Gb Bb Eb

Chord Fingerings:
   E5 G5 A5 D5
E| x  x  x  x
B| x  x  x  x
G| x  x  x  x
D| 2  5  7  12
A| 2  5  7  12
E| 0  3  5  10

|E5 G5 |A5 D5 |
|E5 G5 |A5 D5 |
|E5 G5 |A5 D5 |


 Feelium (11:03 - 11:13)
Tune Down 1/2 Step: Eb Ab Db Gb Bb Eb

Chord FIngerings:
   Em C
E| 0  0
B| 0  1
G| 0  0
D| 2  2
A| 2  3
E| 0  x

Fig1
|---------------------------|
|---------------------------|
|---------------------------|
|-7-9-9-9-9----5-7-7-7-7----|
|-----------7------------5--|
|---------------------------|

|Em C |Em C |Em C |Em C|


Is Alex Milton (11:14 - 11:24)
Tune Down 1/2 Step: Eb Ab Db Gb Bb Eb

|--------------------------------------------|
|--------------------------------------------|
|--------------------------------------------|
|-2-2--2-2--8-7-7-6-6-6-5-5-5-5-2-8-7-7-6-6--|
|-2-2--2-2--8-7-7-6-6-6-5-5-5-5-2-8-7-7-6-6--|
|-0-0--0-0--6-5-5-4-4-4-3-3-3-3-0-6-5-5-4-4--|


Rubberman (11:25 - 11:34)
Tune Down 1/2 Step: Eb Ab Db Gb Bb Eb

There are no chords actually played here, but by the notes Billy hits on vocals,
these chords are implied:

A
Do the rubberman
A
Do the rubberman
A
Do the rubberman
D
Do the rubberman


Spacer (11:35 - 11:42)
Tune Down 1/2 Step: Eb Ab Db Gb Bb Eb

Chord Fingerings:
   A5
E| x
B| x
G| x
D| 7
A| 7
E| 5

|A5 |A5 |A5 |


Rock me (11:43-11:51)
Tune Down 1/2 Step: Eb Ab Db Gb Bb Eb

Is it me or does this sound a lot like Spiders from Ransom? In fact it's
same chord progression, I believe.

Play 2x
|---------------------------|
|---------------------------|
|---------------------------|
|-9-9--9-9-9--9-9-9--9-7-7--|
|-7-7--7-7-7--7-7-7--7-5-5--|
|---------------------------|


Weeping Willowy (11:52 - 12:02)
Tune Down 1/2 Step: Eb Ab Db Gb Bb Eb

Chord Fingerings:
   C  Dsus2
E| 0  0
B| 1  3
G| 0  2
D| 2  0
A| 3  x
E| x  x

|C |Dsus2 |Dsus2 |C |


Rings (12:02-12:17)
Tune Down 1/2 Step: Eb Ab Db Gb Bb Eb

|-------------------------6------------------------------------------|
|-----7-7-7-6-6-6-6---------------9-11-9-6-6-6-6---------------------|
|-7-8----------------7-8------7-8----------------7-8--7-7-8-8--5--7--|
|--------------------------------------------------------------------|
|--------------------------------------------------------------------|
|--------------------------------------------------------------------|



So So Pretty (12:18 - 12:29)
Tune Down 1/2 Step: Eb Ab Db Gb Bb Eb

Play 2x
|---1------1--------1-----4--|
|-----2------2--------2---4--|
|-3--------------------------|
|--------3--------4----------|
|----------------------------|
|----------------------------|


Lucky Lad (12:30-12:43)
Tune Down 1/2 Step: Eb Ab Db Gb Bb Eb

Chord Fingerings:
   B5 G#5 F#5 E5
E| x  x   x   x
B| x  x   x   x
G| x  x   x   x
D| 9  6   4   2
A| 9  6   4   2
E| 7  4   2   0

|B5 |B5 |G#5 |B5 |G#5 |F#5 |E5 |


Jackboot (12:44-12:57)
Tune Down 1/2 Step and drop D: Db Ab Db Gb Bb Eb

Play 6x
|----------------------------|
|----------------------------|
|----------------------------|
|----------------------------|
|-----6-----6-------6--------|
|-8-8---6-8---6-7-8---6-7-8--|


Millieu (12:58 - 13:06)
Standard Tuning: E A D G B E 

This one's by ear, I've already down tuned and I can't find my capo,
I'll fix it later if it's wrong.

  D                 D/A                  D/G  
|---------2-------------------5-------------------2--------|
|-----3-----3---3--------3------3---3---------3-----3---2--|
|---2---2-----2--------2----2-----2---------2---2-----2----|
|-0--------------------------------------------------------|
|-------------------0--------------------------------------|
|----------------------------------------3-----------------|


Disconnected (13:07-13:24) {aka: The Areoplane Flies High (Turns Left, Looks Right)}
Tune Down 1/2 Step and drop D: Db Ab Db Gb Bb Eb

Chord Fingerings:
   A5 C5 G5 F5 Eb5 D5
E| x  x  x  x  x   x
B| x  x  x  x  x   x
G| x  x  x  x  x   x
D| 7  10 5  3  1   0
A| 7  10 5  3  1   0
E| 7  10 5  3  1   0


|Eb5 D5 |A5 |A5 C5 G5 |F5 |Eb5 D5 |A5 |A5 C5 G5 |


Let Your Laser Love Shine Down (13:25-13:34)
Tune Down 1/2 Step: Eb Ab Db Gb Bb Eb

Guitar 1
|-13--11-----------13--|
|--------13---13-11----|
|----------------------|
|----------------------|
|----------------------|
|----------------------|

Guitar 2
|-------------------------------------|
|-------------------------------------|
|-------------------------------------|
|-5-5-3-5--2-2-1-2--5-5-3-5--2-2-1-2--|
|-5-5-3-5-----------5-5-3-5-----------|
|-3-3-1-3-----------3-3-1-3-----------|


Phreak (13:34-13:48)
Tune Down 1/2 Step: Eb Ab Db Gb Bb Eb

|----------------------------------------------------------------------------------|
|----------------------------------------------------------------------------------|
|-------------------7-7-7-7--------------------------------------------------------|
|-8-8-8-8-8-7-7-7-7-7-7-7-7--3-3-3-----3-3-3-3----------3-3-3-----3-3-3-3----------|
|-8-8-8-8-8-7-7-7-7-5-5-5-5--3-3-3-5-6-3-3-3-3-5-6-5-6--3-3-3-5-6-3-3-3-3-5-6-5-6--|
|-6-6-6-6-6-5-5-5-5----------1-1-1-----1-1-1-1----------1-1-1-----1-1-1-1----------|


Porkbelly (13:49-13:58)
Tune Down 1/2 Step: Eb Ab Db Gb Bb Eb

Play 6x
|----------------|
|----------------|
|---------7-9-9--|
|-5-7-7---7-9-9--|
|-5-7-7---5-7-7--|
|-3-5-5----------|


Robot Lover (13:59 - 14:04)
Tune Down 1/2 Step: Eb Ab Db Gb Bb Eb

  Am
|-----------------|
|---1-----1-------|
|-2---2-2---2--2--|
|-----------------|
|-----------------|
|-----------------|


Jimmy James (14:05-14:13)
Tune Down 1/2 Step: Eb Ab Db Gb Bb Eb

Play 2x
|-----------------14-12--------|
|-----------------------14-12--|
|-14-13-11---------------------|
|---------14-11----------------|
|--------------14--------------|
|------------------------------|


America (14:14-14:34)
Tune Down 1/2 Step and drop D: Db Ab Db Gb Bb Eb

|--------------------------------------------------------------------|
|--------------------------------------------------------------------|
|--------------------------------------------------------------------|
|-0-0-12-0-0-10-0-0-5-4-3-0-0-10-0-0-10-0-0-12-0-0-10-0-0-5-4-3-0-0--|
|-0-0-12-0-0-10-0-0-5-4-3-0-0-10-0-0-10-0-0-12-0-0-10-0-0-5-4-3-0-0--|
|-0-0-12-0-0-10-0-0-5-4-3-0-0-10-0-0-10-0-0-12-0-0-10-0-0-5-4-3-0-0--|

|------------------------------------------------------------------------------------------------|
|------------------------------------------------------------------------------------------------|
|------------------------------------------------------------------------------------------------|
|-10-0-0-10-0-0-12-0-0-10-0-0-5-4-3-0-0--10-0-0-10-0-0-5-4-3-0-0-12--10-0-0-10-0-0-5-4-3-0-0-12--|
|-10-0-0-10-0-0-12-0-0-10-0-0-5-4-3-0-0--10-0-0-10-0-0-5-4-3-0-0-12--10-0-0-10-0-0-5-4-3-0-0-12--|
|-10-0-0-10-0-0-12-0-0-10-0-0-5-4-3-0-0--10-0-0-10-0-0-5-4-3-0-0-12--10-0-0-10-0-0-5-4-3-0-0-12--|


Slinkeepie (14:35 - 14:44)
Tune Down 1/2 Step and drop D: Db Ab Db Gb Bb Eb

Play 2x
|---------------------------------------|
|---------------------------------------|
|---------------------------------------|
|-----7-9-7-----7-9-7-----7-9-7-----7---|
|-0-0-------0-0-------0-0-------0-0-----|
|---------------------------------------|


Dummy Tum Tummy (14:45 - 14:52)
Tune Down 1/2 Step and drop D: Db Ab Db Gb Bb Eb

Play 2x
|--5-7-5----5-7-5--|
|-5----------------|
|------------------|
|------------------|
|---------0--------|
|------------------|


Fakir (14:53-15:03)
Tune Down 1/2 Step: Eb Ab Db Gb Bb Eb
|------------------------------------------------------------|
|------------------------------------------------------------|
|------------------------------------------------------------|
|-------7-6--------6---------7-6--------6-------7-6----6-----|	 
|-7---------9--------7-7----------9--------7---------9-------|
|---0-0-------0-0--------0-0--------0-0------0-0-------0-0---|



Jake (15:04 - 15:17)
Tune Down 1/2 Step: Eb Ab Db Gb Bb Eb

  A5      G#5    F#5   E5 F#5 A5         D5 C#5    D5  
|------------------------------------------------------------|
|------------------------------------------------------------|
|------------------------------------------------------------|
|-7-7-7-7-6-6-6-6-4-4-4-2-4-4-7-7-7-7-7-7-12-11-11-12-12-12--|
|-7-7-7-7-6-6-6-6-4-4-4-2-4-4-7-7-7-7-7-7-12-11-11-12-12-12--|
|-5-5-5-5-4-4-4-4-2-2-2-0-2-2-5-5-5-5-5-5-10-9--9--10-10-10--|


Camaro (15:18 - 15:25)
Tune Down 1/2 Step: Eb Ab Db Gb Bb Eb

|---------------------------------------------|
|---------------------------------------------|
|-7-7-6-7-6--8-8-7-8-7--6-6-6-8-8--6-6-6-8-6--|
|---------------------------------------------|
|---------------------------------------------|
|---------------------------------------------|

Moonkids  (15:26-15:34)              
Tune Down 1/2 Step and drop D: Db Ab Db Gb Bb Eb

Play 2 1/2x
 Eb5 F5 Gb5 F5
|-------------|
|-------------|
|-------------|
|-1-1-3-4-4-3-|
|-1-1-3-4-4-3-|
|-1-1-3-4-4-3-|



Make it Fungus (15:36-15:49)
Tune Down 1/2 Step and drop D: Db Ab Db Gb Bb Eb

|-------------------------------------|------
|-------------------------------------|------
|-------------5/7-7-7-----5-5-5/7-7-7-|-9-11-
|-2-0-2-0-2-0-5/7-7-7-5-5-5-5-5/7-7-7-|------
|-2-0-2-0-2-0-3/5-5-5-5-5-3-3-3/5-5-5-|------
|-2-0-2-0-2-0---------5-5-------------|------

Fig1
Play 4x
  E5                          D5
|--------------------------------------|
|--------------------------------------|
|--------------------------------------|
|-2-2-2-2-2-2-2-2-2-2-2-2-2-2-0-0-0-0--|
|-2-2-2-2-2-2-2-2-2-2-2-2-2-2-0-0-0-0--|
|-2-2-2-2-2-2-2-2-2-2-2-2-2-2-0-0-0-0--|

Fig2
Play 2 1/2x 
  E5    A5  
|----------------|
|----------------|
|-9-9-9----------|
|-9-9-9-7-7-7-7--|
|-7-7-7-7-7-7-7--|
|-------5-5-5-5--|



V-8 (15:50 - 16:05)
Tune Down 1/2 Step: Eb Ab Db Gb Bb Eb

This is just a lot of wanking on guitar and bass and a lot of kick from the drums.
It's played as a build up to "Die" over this Bb5 chord:

Bb5
|-x-|
|-x-| 
|-x-|
|-8-|
|-8-|
|-6-|


Die (16:05 - 23:00)
Tune Down 1/2 Step: Eb Ab Db Gb Bb Eb

(This sounds a lot like the middle section of x.y.u.) 

Again, a lot of wanking on guitar, (too much to tab out) over this
basic progression:

 F#5 E5
|-------|
|-------|
|-------|
|-4--2--|
|-4--2--|
|-2--0--|
 
Soon after, it changes to this:

 F#5 F5 E5
|----------|
|----------|
|----------|
|-4--3--2--|
|-4--3--2--|
|-2--1--0--|

After about 6 minutes it builds into this for about the last 10 seconds:

|-------------------|
|-------------------|
|-------------------|
|-4-2-2-2--2-2-2-2--|
|-4-2-2-2--2-2-2-2--|
|-2-0-0-0--0-0-0-0--|





Comments


Popular Smashing Pumpkins tabs & chords
Blank Page 4 Bass Tabs
Blue Bass Tabs
Crestfallen Bass Tabs
Tear 1 Bass Tabs
One Diamond One Heart 1 Chords
1979 (Intro) Tabs
Today 4 Tabs
Farewell And Goodnight Ukulele
My Mistake Ukulele
Pale Horse Ukulele


Song lyrics



↑ Back to top | Tablatures and chords are parodies/interpretations of the original songs. You may use it for private study, scholarship, research or language learning purposes only
© 2014 AZChords.com Contact us | Privacy policy | DMCA | Add/correct tabs | Request tabs | Top 50 tabs