>
 >
Pastichio Medley 1

Pastichio Medley 1 Guitar Tabs

Smashing Pumpkins - Pastichio Medley 1 chords, tabs, tablatures, lyrics

Guitar lessons | Add/correct | Request | Top 50 tabs Artists:  A B C D E F G H I J K L M N O P Q R S T U V W X Y Z 0-9

Pastichio Medley 1 Guitar Tabs – Smashing Pumpkins

CD, Sheet music, Poster

Do you like Pastichio Medley 1? Share with your friends now
TabsTabs v2
Here is the randomness of the Smashing Pumpkins during Siamese Dream and Mellon Collie. 
of these are just noise and a lot of effects, and some of them are just small riffs and 
Have fun.

*** The Demon

(0:00 - 0:10) Eb Ab Db Gb Bb Eb

|-------------------------------------|
|-------------------------------------|
|-------------------------------------|
|-------------------------------------|
|-------3-----------------------------|
|-3h4h5---5p3h5p3-3p1h3p1h3p1h3/5p3\1-|

                                x3
|---------------------------------|
|---------------------------------|
|---------------------------------|
|---------------------------------|
|-5-------3p0---------------------|
|---3h4h5-----3p1-3p1h3p1h3/5p3\1-|


*** Thunderbolt

(0:11 - 0:24) Eb Ab Db Gb Bb Eb

                                x3
|---------------------------------|
|-3-3-0-1-1-----------------------|
|-0-0-0-0-0-2-2-4-4-0-0-2-2-2-2-2-|
|-0-0-0-0-0-0-0-0-0-0-0-0-0-0-0-0-|
|-X-X-X-X-X-X-X-X-X-X-X-X-X-X-X-X-|
|-3-3-3-3-3-3-3-3-3-3-3-3-3-3-3-3-|


*** Dearth

(0:25 - 0:35) Eb Ab Db Gb Bb Eb

                             x4.5
|-------------------------------|
|-------------------------------|
|-------------------------------|
|-------------------------------|
|-------------------------------|
|-0h2-2-0h2-2-0h2-2-0h2-2-0h2-1-|


*** Knuckles

(0:36 - 0:52) Eb Ab Db Gb Bb Eb

 Lead                   x2
|-------------------------|
|-------------------------|
|-14----14----13----13----|
|----17----17----14----14-|
|-------------------------|
|-------------------------|
|Rhythm                 x2
|-------------------------|
|-------------------------|
|-------------------------|
|-5-----------2-----------|
|-5-----------2-----------|
|-3-----------0-----------|


*** Star Song

(0:53 - 1:15) Eb Ab Db Gb Bb Eb

Play lead in C major

|----------------------------------------|
|----------------------------------------|
|-------2-----------5--7--------2--------|
|-3--2--2--5--3--2--5--7--3--2--2--------|
|-3--2--0--5--3--2--3--5--3--2--0--------|
|-1--0-----3--1--0--------1--0-----------|

|-------|
|-------|
|-------|
|-3--2--|
|-3--2--|
|-1--0--|


*** ??? (I don't think this is a song)

(1:16 - 1:28)

Just make lots of noise and feedback


*** Firepower

(1:29 - 1:35) Eb Ab Db Gb Bb Eb

|---------------------|
|---------------------|
|-6----10----5--------|
|-6----10----5--------|
|-4----8-----3--------|
|---------------------|


*** New Waver

(1:36 - 1:41) E A D G B E

|-1----0----1----0----0----3----|
|-1----1----1----1----0----3----|
|-2----2----2----2----0----0----|
|-3----2----3----2----2----0----|
|-3----0----3----0----2----2----|
|-1---------1---------0----3----|


*** Space Jam

(1:42 - 1:57) B F# B E G# C#

             x8
|--------------|
|--------------|
|--------------|
|--------------|
|--------------|
|-0--0-0-0--0--|

                                          x2
|-------------------------------------------|
|-------------------------------------------|
|-------------------------------------------|
|-0-10-12-0-10-12-0-10-12-0-10-12-0-10(12~~)|
|-0-10-12-0-10-12-0-10-12-0-10-12-0-10(12~~)|
|-0-10-12-0-10-12-0-10-12-0-10-12-0-10-12~~-|


*** Zoom

(1:58 - 2:16) Db Ab Db Gb Bb Eb

 Bass
|---------------------------------|
|---------------------------------|
|---------------------------------|
|-0-0-7-6-5---0-10-10-5-4-3-3-2-1-|

 Guitars                        x3
|---------------------------------|
|---------------------------------|
|---------------------------------|
|-0-0-7-6-5---0-10-10-5-4-3-3-2-1-|
|-0-0-7-6-5---0-10-10-5-4-3-3-2-1-|
|-0-0-7-6-5---0-10-10-5-4-3-3-2-1-|

|-------------|
|-------------|
|-------------|
|-0-0-10-9-8--|
|-0-0-10-9-8--|
|-0-0-10-9-8--|


*** So Very Sad About Us

(2:17 - 2:26) Eb Ab Db Gb Bb Eb

                                x3
|---------------------------------|------------------------------|
|---------------------------------|------------------------------|
|---------------------------------|-------------------------2----|
|---------------------------------|-------------------------2----|
|---------------------------------|-------------------------0----|
|-3p0-0-3p0-0-3p0-0-3p0-0-3p0-3p0-|-3p0-0-3p0-0-3p0-0-3p0-0------|


*** Phang

(2:27 - 2:47) Eb Ab Db Gb Bb Eb

                     x2
|----------------------|------------------------------------------|
|----------------------|------------------------------------------|
|----------------------|------------------------------------------|
|----------------------|------------------------------------------|
|----------------0h1h2-|------------------------------------0h1h2-|
|-0--0-0--0-3--3-------|-0--0-0--0-0--0-0--0-0--0-0--0-0--3-------|

                     x2
|----------------------|
|----------------------|
|----------------------|
|----------------------|
|----------------0h1h2-|
|-0--0-0--0-3--3-------|


 Rhythm            x2
|--------------------|
|--------------------|
|-5----9----7--------|
|-5----9----7--------|
|-3----7----5--------|
|------0-------------|

 Lead
|-----------------------------------------|
|-----------------------------------------|
|-5----9----7--------5----9----7----12----|
|-----------------------------------------|
|-3----7----5--------3----7----5----10----|
|-----------------------------------------|


*** Speed Racer

(2:48 - 3:02) Db Ab Db Gb Bb Eb

 Bass
|----------------------------|
|----------------------------|
|----------------------------|
|-0-3-4-5-5-6-7-7-7-10-10-10-|

 Guitar                    x4
|----------------------------|
|----------------------------|
|----------------------------|
|-0-3-4-5-5-6-7-7-7-10-10-10-|
|-0-3-4-5-5-6-7-7-7-10-10-10-|
|-0-3-4-5-5-6-7-7-7-10-10-10-|


*** The Eternal E

(3:03 - 3:17) Eb Ab Db Gb Bb Eb

            x4
|-0--2--2h3p0-|
|-------------|
|-------------|
|-------------|
|-------------|
|-------------|

|-------x-x-x-x-x-10-9~~~~---------|
|-------x-x-x-x-x------------------|
|-7~~~~-x-x-x-x-x----------5-4~~~~-|
|-------x-x-x-x-x------------------|
|-------x-x-x-x-x------------------|
|-------x-x-x-x-x------------------|


*** Hairy Eyeball

(3:18 - 3:22) Eb Ab Db Gb Bb Eb

 Play lead in F major
|---------------------------------|
|---------------------------------|
|---------------------------------|
|-3-3-3-3-3-3-3-3-8-8-8-8-8-8-8-8-|
|-3-3-3-3-3-3-3-3-8-8-8-8-8-8-8-8-|
|-1-1-1-1-1-1-1-1-6-6-6-6-6-6-6-6-|
  ...............................


*** The Groover

(3:23 - 4:03) D A D G B E

Play lead in C Major

                  x5.5
|---------------------|
|---------------------|
|-5----5--------------|
|-5----5----0----2----|
|-3----3----0----2----|
|-----------0----2----|


*** Hell Bent for Hell

(4:04 - 4:20) Eb Ab Db Gb Bb Eb


|------------------------------------|
|------------------------------------|
|-----12~~~~-11-11-11-11-11-11-11-11-|
|------------------------------------|
|-----10~~~~-9--9--9--9--9--9--9--9--|
|-0-0--------------------------------|

|------------------------------------------------------|
|------------------------------------------------------|
|-----12~~~~-11-11-11-11-11-11-11b-11b-11b-11b-11b-11b-|
|------------------------------------------------------|
|-----10~~~~-9--9--9--9--9--9--9-b-9-b-9-b-9-b-9-b-9-b-|
|-0-0--------------------------------------------------|

                                   x2
|------------------------------------|
|------------------------------------|
|-----16~~~~-19-19-19-19-19-19-19-19-|
|------------------------------------|
|-----14~~~~-17-17-17-17-17-17-17-17-|
|-0-0--------------------------------|

|------------|
|------------|
|-----16~~~~-|
|------------|
|-----14~~~~-|
|-0-0--------|


*** Rachel

(4:21 - 4:35) D A D G B E

                                x3
|---------------------------------|
|---------------------------------|
|---------------------------------|
|-9-0-0-0-9-0-0-0-9-0-0-0-9-0-9-0-|
|-9-0-0-0-9-0-0-0-9-0-0-0-9-0-9-0-|
|-9-0-0-0-9-0-0-0-9-0-0-0-9-0-9-0-|


*** A Dog's Prayer

(4:36 - 5:26) Eb Ab Db Gb Bb Eb
                                                                x2
|-----------------------------------------------------------------|
|-----------------------------------------------------------------|
|---------------------------------7-7-7-7-7-7-7-7-----------------|
|-2-2-2-5-5-5-7-7-2-2-2-5-5-5-7-7-7-7-7-7-7-7-7-7-7-7-7-7-7-7-7-7-|
|-2-2-2-5-5-5-7-7-2-2-2-5-5-5-7-7-5-5-5-5-5-5-5-5-7-7-7-7-7-7-7-7-|
|-0-0-0-3-3-3-5-5-0-0-0-3-3-3-5-5-----------------5-5-5-5-5-5-5-5-|

                x2
|-----------------|---------------------------------|
|-----------------|---------------------------------|
|-----------------|---------------------------------|
|-2-2-2-5-5-5-7-7-|---------------------------------|
|-2-2-2-5-5-5-7-7-|---------------------------------|
|-0-0-0-3-3-3-5-5-|-0-0-3-3-4-4-5-5-6-6-7-7-8-8-9-9-|

                x2
|-----------------|------------------------------------|
|-----------------|-12-12-11-11-10-10-9-9-8-8-7-9b10r9-|
|-----------------|------------------------------------|
|-2-2-2-5-5-5-7-7-|------------------------------------|
|-2-2-2-5-5-5-7-7-|------------------------------------|
|-0-0-0-3-3-3-5-5-|------------------------------------|

               x11
|-----------------|
|-----------------|
|-----------------|
|-2-2-2-5-5-5-7-7-|
|-2-2-2-5-5-5-7-7-|
|-0-0-0-3-3-3-5-5-|


*** Blast

(5:27 - 5:48) Eb Ab Db Gb Bb Eb
                                   x3.5
|--------------------------------------|
|--------------------------------------|
|-12-12-12-12-5-5-5-5-8-8-8-8-8-8-8-10-|
|-12-12-12-12-5-5-5-5-8-8-8-8-8-8-8-10-|
|-10-10-10-10-3-3-3-3-6-6-6-6-6-6-6-8--|
|--------------------------------------|


*** The Black Rider

(5:49 - 5:59) Eb Ab Db Gb Bb Eb

|-------------------------------------------------|
|-------------------------------------------------|
|-------------------------------------------------|
|-------------------------------------------------|
|-------------------------------------------------|
|-2-2-2-2-2-2-2-2-0-0-0-0-0-0-0-0-2-2-2-2-2-2-2-2-|


*** Slurpee

(6:00 - 6:17) Eb Ab Db Gb Bb Eb

 Guitar 1
                   x3
|--------------------|--------------------|
|--------------------|--------------------|
|-7------------------|-2----5-------------|
|-7----5----8--------|-2----5----5--------|
|-5----5----8--------|-0----3----5--------|
|------3----6--------|-----------3--------|
|Guitar 2          x3
|-7----5----3--------|-2----5----3--------|
|-7----5----3--------|-2----5----3--------|
|--------------------|--------------------|
|--------------------|--------------------|
|--------------------|--------------------|
|--------------------|--------------------|


*** Flipper

(6:18 - 6:39) Eb Ab Db Gb Bb Eb

|------------------------------------------------------------------------|
|------------------------------------------------------------------------|
|-----13~~-9-9-11-11-13-13-6-6-6-6-6-6\4/6-9~~-9-9-11-11-13-13-6-6-6-6-6-|
|--------------------------6-6-6-6-6-6-------------------------6-6-6-6-6-|
|-----11~~-7-7-9--9--11-11-4-4-4-4-4-4\2/4-7~~-7-7-9--9--11-11-4-4-4-4-4-|
|-0-0--------------------------------------0-----------------------------|

 ----------------------------------------------|
 ----------------------------------------------|
 -6\4/6-9~-9\4~~-------------9-9-11-11-13-13-6-|
 ----------------------------------------------|
 -4\2/4-7~-7\2~~-------------7-7-9--9--11-11-4-|
 -------0--------0-2~~~~~~~~-------------------|


*** The Viper

(6:40 - 6:48) Eb Ab Db Gb Bb Eb

|-0----0----|
|-1----1----|
|-0----0----|
|-2----0----|
|-3----2----|
|-----------|

|--------------------------------|
|--------------------------------|
|------12\11-11\9----------------|
|------------------5-5-5-5-9-9-9-|
|------10\9--9-\7--5-5-5-5-9-9-9-|
|-0--0-------------3-3-3-3-7-7-7-|


*** Bitch

(6:49 - 6:56) Eb Ab Db Gb Bb Eb

|---------------------------|
|---------------------------|
|-----11~-------------------|
|---------------------------|
|-----9~~-------------------|
|-0-0------0-3-4-5-0-5-6-7--|


*** Fried

(6:57 - 7:06) E A D G B E

                         x3
|--------------------------|
|--------------------------|
|-----12\------------------|
|----------7-7-7-7-7-7-8---|
|-----10\------------------|
|-0-0------5-5-5-5-5-5-6---|


*** Harmonio

(7:07 - 7:16) D A D G B E

Harmonics at first

                x3
|-----------------|
|-----------------|
|-----------------|
|-5-5-5-5-0-0-0-0-|
|-5-5-5-5-0-0-0-0-|
|-5-5-5-5-0-0-0-0-|


*** U.S.A.

(7:17 - 7:24) Eb Ab Db Gb Bb Eb

Play in F major


*** The Tracer

(7:25 - 7:37) Eb Ab Db Gb Bb Eb

 Guitar 1
|-----------------------------|
|-----------------------------|
|-----------------------------|
|-2~~~~~~---------------------|
|-2~~~~~~---------------------|
|-0~~~~~~---------------------|
|Guitar 2
|-----------------------------|
|-----------------------------|
|-14\13\11\9----14\13\11\7----|
|-----------------------------|
|-12\11\9-\7----12\11\9-\5----|
|-----------------------------|


*** Envelope Woman

(7:38 - 7:49) Eb Ab Db Gb Bb Eb

                                x4
|---------------------------------|
|---------------------------------|
|---------------------------------|
|-2-2-4-4-6-6-6-6-6-6-6-6-6-6-6-6-|
|-2-2-4-4-6-6-6-6-6-6-6-6-6-6-6-6-|
|-0-0-2-2-4-4-4-4-4-4-4-4-4-4-4-4-|
  ...............................


*** The Tracer (again)

(7:50 - 8:00) Eb Ab Db Gb Bb Eb

Guitar 1
|--------------|
|--------------|
|--------------|
|-2~~~~~~------|
|-2~~~~~~------|
|-0~~~~~~------|
|Guitar 2    x4
|--------------|
|--------------|
|-14\13\11\7/9-|
|--------------|
|-12\11\9-\5/7-|
|--------------|


*** Plastic Guy

(8:01 - 8:10) Eb Ab Db Gb Bb Eb

                    x2
|---------------------|
|---------------------|
|-7h8p7/10~~~---------|
|-------------8-10~~~-|
|---------------------|
|---------------------|


*** Glasgow 3am

(8:11 - 8:17) Eb Ab Db Gb Bb Eb

Play in D# major (or tune to E A D G B E and play D major)


*** The Road is Long

(8:18 - 8:26) Eb Ab Db Gb Bb Eb
|--------------------------------------|
|-----7---9b11r9----4----4------9b11r9-|
|-6h8---------------6b8--8r6-----------|
|--------------------------------------|
|--------------------------------------|
|--------------------------------------|


*** Funkified

(8:27 - 8:34) Eb Ab Db Gb Bb Eb

 Guitar 1
|-------------------------------------|
|-------------------------------------|
|-------------------------------------|
|-5-----------------------------------|
|-5-----------------------------------|
|-3-----------------------------------|
|Guitar 2
|-------------------------------------|
|-------------------------------------|
|-12--12\10/12/14--12\10/12/14\12/10--|
|-------------------------------------|
|-10--10\8-/10/12--10\8-/10/12\10\8---|
|-------------------------------------|

 Guitar 1
|-------------------------------------|
|-------------------------------------|
|-------------------------------------|
|-2-----------------------------------|
|-2-----------------------------------|
|-0-----------------------------------|
|Guitar 2
|-------------------------------------|
|-------------------------------------|
|-9--9\7/9/11--9\7/9/11--9\7/9/11-----|
|-------------------------------------|
|-7--7\5/7/9---7\5/7/9---7\5/7/9------|
|-------------------------------------|


*** Rigamarole

(8:35 - 8:46) Db Ab Db Gb Bb Eb

                  x2
|-0-0-0-------------|
|-3-3-3---------3---|
|-0-0-0---------2---|
|-2-2-2---2p0-0-0---|
|-3-3-3---2p0-0-0---|
|---------2p0-0-0---|

|-------------------|
|---------------3---|
|---------------2---|
|-3-3-3---2p0-0-0---|
|-3-3-3---2p0-0-0---|
|-3-3-3---2p0-0-0---|


*** Depresso

(8:47 - 9:03) Eb Ab Db Gb Bb Eb

|---------------------------------|
|---------------------------------|
|-4---8----4---8--6--11----9-8-6--|
|---------------------------------|
|-2---6----2---6--4--9-----7-6-4--|
|---------------------------------|


*** The Streets are Hot Tonite

(9:04 - 9:15) Eb Ab Db Gb Bb Eb

                  x1.5
|-0----0----3----0----|
|-0----3----3----0----|
|-2----2----0----0----|
|-2----0----0----2----|
|-0---------2----2----|
|-----------3----0----|


*** Dawn at 16

(9:16 - 9:39) Eb Ab Db Gb Bb Eb
                                      x8
|---------------------------------------|
|---------------------------------------|
|---------------------------------------|
|---------------------------------------|
|---------------------------------------|
|-12p0-0-12p0-0-12p0-0-12p0-0-12p0-12p0-|


*** Spazzmatazz

(9:40 - 9:49) Eb Ab Db Gb Bb Eb

                                x3
|---------------------------------|
|---------------------------------|
|---------11/13-------------------|
|---------------9-9-9-12-12-13-14-|
|---------9-/11-9-9-9-12-12-13-14-|
|-0-0-0-0-------7-7-7-10-10-11-12-|
  .......       .................


*** Fucker

(9:50 - 10:00) D A D G B E

                                   x2
|------------------|-----------------|
|---------3~~~~----|-----------------|
|------------------|-----------------|
|-0-3-2-1----------|-0-3-5-5-5-0-0-0-|
|-0-3-2-1----------|-0-3-5-5-5-0-0-0-|
|-0-3-2-1-0--------|-0-3-5-5-5-0-0-0-|
  .......


*** In the Arms of Sheep

(10:01 - 10:16) Eb Ab Db Gb Bb Eb

Strum on this the whole time
|-0----|
|-0----|
|-0----|
|-2----|
|-2----|
|-0----|


*** Speed

(10:17 - 10:39) Db Ab Db Gb Bb Eb

 Guitar 1                 x5.5
|-0-------0-----------0-------|
|-0-------0-----------0-------|
|-2-------2-----------2-------|
|-2-------2-----------2-------|
|-0-------0-----------0-------|
|-----------------------------|
|Guitar 2                 x5.5
|-----------------------------|
|-----------------------------|
|-----------------------------|
|-----------------------------|
|-----------------------------|
|-7-7-7-7-7-7-7-7-7-7-7-7-7-7-|
  ...........................

                            x2.5
|-------------------------------|
|-------------------------------|
|-------------------------------|
|-7-7-7-0---0-0-7---7-7-7-0--0--|
|-7-7-7-0---0-0-7---7-7-7-0--0--|
|-7-7-7-0---0-0-7---7-7-7-0--0--|


*** 77

(10:40 - 10:50) Eb Ab Db Gb Bb Eb

|-------------------------------0-----------3-----|
|-------3-----------3-----------0-------------3---|
|---------0-------4---4-------------------0-----0-|
|-----0-----0---4-------4-----2---2-----2---------|
|---2---------2-------------2-------2-3-----------|
|-3-----------------------0-----------------------|


*** Me Rock You Snow

(10:51 - 11:02) Eb Ab Db Gb Bb Eb

                                x3
|---------------------------------|
|---------------------------------|
|-----------------2-2-2-2-7-7-7-7-|
|-2-2-2-2-5-5-5-5-2-2-2-2-7-7-7-7-|
|-2-2-2-2-5-5-5-5-0-0-0-0-5-5-5-5-|
|-0-0-0-0-3-3-3-3-----------------|


*** Feelium

(11:03 - 11:13) Eb Ab Db Gb Bb Eb

|------------------------------------------------------------------|
|---------0---------------0---------------0---------------0--------|
|-----0-----0---0-----0-----0---0-----0-----0---0-----0-----0---0--|
|---2---2-----2-----2---2-----2-----2---2-----2-----2---2-----2----|
|-0-------------------------------3---------------0----------------|
|-----------------3------------------------------------------------|

 ---------------------------------|
 ---------0---------------0-------|
 -----0-----0---0-----0-----0---0-|
 ---2---2-----2-----2---2-----2---|
 -3-------------------------------|
 -----------------3---------------|


*** Is Alex Milton

(11:14 - 11:24) Eb Ab Db Gb Bb Eb

|-----------------|---------------|
|-----------------|---------------|
|-9---9---9---9---|---------------|
|-----------------|-7-6-7-6-7-6-4-|
|-7---7---7---7---|-7-6-7-6-7-6-4-|
|---0---0---0---0-|-5-4-5-4-5-4-2-|


*** Rubberman

(11:25 - 11:34) Eb Ab Db Gb Bb Eb

Some whacked out effect, sounds like the Digitech whammy but I can't be too sure
|-------------------------|
|-------------------------|
|-------------------------|
|-------------------------|
|-------9/\/\-------------|
|-5/\/\-------7/\/\-7/\/\-|


*** Spacer

(11:35 - 11:42) Eb Ab Db Gb Bb Eb

 Guitar 1
|-----------------|
|-----------------|
|---------0-------|
|-0-2-3-5---0-0h2-|
|-----------------|
|-----------------|

Guitar 2 scrape strings behind nut


*** Rock Me

(11:43 - 11:51) Eb Ab Db Gb Bb Eb

                                   x2
|------------------------------------|
|------------------------------------|
|------------------------------------|
|------------------------------------|
|------------------------------------|
|-12-0---0-0-0---0-0-0--0-10-0-10/12-|


*** Weeping Willowly

(11:52 - 12:02) Eb Ab Db Gb Bb Eb

|-0----0----0----0----|
|-1----3----3----1----|
|-2----2----2----2----|
|-0----0----0----0----|
|---------------------|
|---------------------|


*** Rings

(12:03 - 12:17) E A D G B E

                    x2
|----------------5----|-----------0-|
|-----6--6-5----------|-----0-------|
|-6-7----------7----6-|---2-----2---|
|---------------------|-------------|
|---------------------|-0-----------|
|---------------------|-------------|


*** So So Pretty

(12:18 - 12:29) E A D G B E

                         x2.5
|---0------0------0----3--3--|
|-----0------0------0--0--0--|
|----------------------0-----|
|--------2------3------------|
|-3--------------------------|
|----------------------------|


*** Lucky Lad

(12:30 - 12:43) Eb Ab Db Gb Bb Eb

|-------------------------------|
|-------------------------------|
|-4---------4-------------------|
|-4----6----4----6----4----2----|
|-2----6----2----6----4----2----|
|------4---------4----2----0----|


*** Jackboot

(12:44 - 12:57) D A D G B E

 Clean                      x3
|-----------------------------|
|-----------------------------|
|-----------------------------|
|-----------------------------|
|-----5~~---------------------|
|-0-0-----3-4-5-0-3-4-5-0-3~~-|

 Distorted                  x2
|-----------------------------|
|-----------------------------|
|-----7~~---------------------|
|-0-0-----3-4-5-0-3-4-5-0-3~~-|
|-0-0-5~~-3-4-5-0-3-4-5-0-3~~-|
|-0-0-----3-4-5-0-3-4-5-0-3~~-|


*** Millieu

(12:58 - 13:06) E A D G A E
                        ^note the tuning

|---------2---------------0---------------2----------|
|-----0-----0---0-----0-----0---0-----0-----0---0----|
|---0---0-----0-----2---2-----0-----0---0-----0------|
|-2---------------0---------------2---------------5~-|
|----------------------------------------------------|
|----------------------------------------------------|


*** Disconnected

(13:07 - 13:24) Db Ab Db Gb Bb Eb
                                                                  x2
|-------------------------------------------------------------------|
|-------------------------------------------------------------------|
|-------------------------------------------------------------------|
|-3-3-3-3-3-3-3-3-1-1-1-1-1-0-0-0-7-7-7-7-7-7-7-7-7-7-7-10-10-5-5-0-|
|-3-3-3-3-3-3-3-3-1-1-1-1-1-0-0-0-7-7-7-7-7-7-7-7-7-7-7-10-10-5-5-0-|
|-3-3-3-3-3-3-3-3-1-1-1-1-1-0-0-0-7-7-7-7-7-7-7-7-7-7-7-10-10-5-5-0-|


*** Let Your Lazer Light Shine Down

(13:25 - 13:33) Eb Ab Db Gb Bb Eb

                      x2
|-----------------------|
|-----------------------|
|-----------------------|
|-----------------------|
|------------3-3-1-3----|
|-3-3-1-3---------------|
  ......     ......


*** Phreak

(13:34 - 13:37) E A D G B E

|-----------|
|-----------|
|-6/7-------|
|-6/7-5--2--|
|-4/5-5--2--|
|-----3--0--|


*** Porkbelly

(13:38 - 13:48) E A D G B E

|---------------------------------|
|---------------------------------|
|-------------------------6-6-6-6-|
|-2-2-2-2-7-7-7-7-6-6-6-6-6-6-6-6-|
|-2-2-2-2-7-7-7-7-6-6-6-6-4-4-4-4-|
|-0-0-0-0-5-5-5-5-4-4-4-4---------|

|----------------------------------------------------|
|----------------------------------------------------|
|----------------------------------------------------|
|-------------------------------------------------7--|
|--------4h5h7--------5p4h5p4--------4h5h7--------7--|
|-0--0-0-------0--0-0---------0--0-0-------0--0-0-5--|


*** Robot Lover

(13:49 - 13:58) Eb Ab Db Gb Bb Eb

            x5
|-------------|
|-------------|
|-------7/9-9-|
|-5/7-7-7/9-9-|
|-5/7-7-5/7-7-|
|-3/5-5-------|


*** Jimmy James

(13:59 - 14:04) Eb Ab Db Gb Bb Eb

|--------------------------|
|--------------------------|
|-2-5~~-0-0-2b3r2-0--2-5~~-|
|--------------------------|
|--------------------------|
|--------------------------|


*** America

(14:05 - 14:13) Eb Ab Db Gb Bb Eb

                            x2
|-----------------14p12-------|
|-10p9------------------14p12-|
|------11p9-------------------|
|-----------11p9--------------|
|-----------------------------|
|-----------------------------|


*** Slinkeepie

(14:14 - 14:33) B F# B E G# C#

                                x2
|---------------------------------|
|---------------------------------|
|-7-----7-----9-----7-------------|
|-------------------------7-6-5---|
|-5-----5-----7-----5-----7-6-5---|
|---0-0---0-0---0-0---0-0-7-6-5-0-|
    ...   ...   ...   ...........

                                x2
|----------------------------------|
|----------------------------------|
|-7-----7---------------9~~b10r9~~-|
|-------------7-6-5----------------|
|-5-----5-----7-6-5-----7~~b8~r7~~-|
|---0-0---0-0-7-6-5-0-0------------|
    ...   .............


*** Dummy Tum Tummy

(14:34 - 14:44) Eb Ab Db Gb Bb Eb

                                              x2
|-----------------------------------------------|
|-10-10-10-10-10-10-10-10-10-10-10-10-10-10-----|
|-------------------------------------------7h9-|
|-----------------------------------------------|
|-----------------------------------------------|
|-----------------------------------------------|


*** Fakir

(14:45 - 14:51) Eb Ab Db Gb Bb Eb

                           x2
|----------------------------|
|----12b13r12----12b13r12----|
|-14----------14----------14-|
|----------------------------|
|-0-----------0--0--------0--|
|----------------------------|


*** Jake

(14:52 - 15:03) Eb Ab Db Gb Bb Eb

                  x2.5
|---------------------|
|---------------------|
|-14\13---11---13---9-|
|---------------------|
|-12\11---9----11---7-|
|-------0----0----0---|


*** Camaro

(15:04 - 15:17) Eb Ab Db Gb Bb Eb

|---------------------------------|
|---------------------------------|
|---------------------------------|
|-7-7-7-7-6-6-6-6-4-4-4-4-7-7-7-7-|
|-7-7-7-7-6-6-6-6-4-4-4-4-7-7-7-7-|
|-5-5-5-5-4-4-4-4-2-2-0h2-5-5-5-5-|

 Guitar 1
|----------------|-----------------|
|----------------|-----------------|
|-7--------------|-----------------|
|-7--------------|-4-4-4-4-7-7-7-7-|
|-5--------------|-4-4-4-4-7-7-7-7-|
|----------------|-2-2-0h2-5-5-5-5-|
|Guitar 2
|----------------|-----------------|
|----------------|-----------------|
|-13b15r13-11----|-13b15r13-11-----|
|-------------14-|-------------11--|
|----------------|-----------------|
|----------------|-----------------|


*** Moonkids

(15:18 - 15:24) Eb Ab Db Gb Bb Eb

|-------------------------------|
|-------------------------------|
|-7-7-5h7p5/8-7h8p7\4~~-4b5r4~~-|
|-------------------------------|
|-------------------------------|
|-------------------------------|


*** Make it Fungus

(15:25 - 15:34) D A D G B E

 Guitar 1    x2
|--------------|
|--------------|
|--------------|
|--------------|
|--------------|
|-3---2--0---2-|
|Guitar 2    x3
|--------------|
|--------------|
|--------------|
|-9b11r9-7---9-|
|--------------|
|--------------|


*** V-8

(15:35 - 15:49) Eb Ab Db Gb Bb Eb

                            x3
|-----------------------------|
|-----------------------------|
|-9-9-9-9-9-9-9-9-9-9-9-11-11-|
|-----------------------------|
|-7-7-7-7-7-7-7-7-7-7-7-9--9--|
|-0-0-0-0-0-0-0-0-0-0-0-0--0--|

                x2
|-----------------|
|-----------------|
|-----------------|
|-2-2-2-7-7-7-7-7-|
|-2-2-2-7-7-7-7-7-|
|-0-0-0-5-5-5-5-5-|


*** Die

(15:50 - 22:54) Eb Ab Db Gb Bb Eb

|-----------------------------------|
|-----------------------------------|
|-17////18///19//20//21//22////////-|
|-----------------------------------|
|-15////16///17//18//19//20////////-|
|-----------------------------------|

 Guitar 1  x8
|------------|
|------------|
|------------|
|------------|
|------------|
|-2~~~~~~~-0-|
|Guitar 2  x5
|------------|
|------------|
|------------|
|-9b12r9-----|
|------------|
|------------|


 Guitar 1
|-------------|
|-------------|
|-------------|
|-------------|
|-------------|
|-2~~~~-1--0--|
|Guitar 2 (Use pinch harmonics)
|-------------|
|-------------|
|-------------|
|-9~~~~-8--7--|
|-------------|
|-------------|
|Guitar 3
|-------------|
|-------------|
|-------------|
|-9b12r9------|
|-------------|
|-------------|

A 4th guitar just makes feedback


*** XYU?

(22:55 - 23:00)

|------------------|
|------------------|
|------------------|
|------------------|
|------------------|
|-0-0-0-0-0-0-/7-0-|





Comments


Popular Smashing Pumpkins tabs & chords
The End Is The Beginning Is The End Bass Tabs
With You Bass Tabs
1979 Chords
Ava Adore 2 Chords
Blissed And Gone 1 Chords
Untitled Chords
Blissed And Gone Ukulele
Eye Ukulele
God Ukulele
Pug Ukulele


Song lyrics



↑ Back to top | Tablatures and chords are parodies/interpretations of the original songs. You may use it for private study, scholarship, research or language learning purposes only
© 2014 AZChords.com Contact us | Privacy policy | DMCA | Add/correct tabs | Request tabs | Top 50 tabs