» » »

Smashing Pumpkins, Owata Tabs (ver.2)

Artists:  A B C D E F G H I J K L M N O P Q R S T U V W X Y Z # 

Owata Tabs (ver.2)

Smashing Pumpkins Tabs
 Rating:
4/5 (4 votes)
Owata lessons Tabs too difficult? Try these video lessons and learn fast
1
                Hey SP fans,

I noticed nobody has tabbed this song so here is my attempt of Owata

The song is not too hard. Just listen to it to get the hang of the strumming.

Have a listen to this version as it's a bit slower so easier to practice.

Or check out this awesome live clip from the Chris Isaak Hour!

So this song should be on the TBK album and it will most likely be electric. 
(The live electric version is awesome by the way!)
Anyhow this tab is for the acoustic version. Enjoy!

~~~~~~~~~~~~~~~~~~~~~~~~~~~~~~~~~~~~~~~~~~~~~~~~~~~~~~~~~~~~~~~~~~~~~~~~~~~~
Tuning: DADGBE (Drop D) Capo 5th fret
~~~~~~~~~~~~~~~~~~~~~~~~~~~~~~~~~~~~~~~~~~~~~~~~~~~~~~~~~~~~~~~~~~~~~~~~~~~~
The lyrics within the tabs is just the first part of the song to give you
an idea. See full lyrics below with guides on when to play what riffs.
~~~~~~~~~~~~~~~~~~~~~~~~~~~~~~~~~~~~~~~~~~~~~~~~~~~~~~~~~~~~~~~~~~~~~~~~~~~~

                                (Riff 1)
 |-----------------------------------------------------------------------|
 |  Right off the  |     into a      |     to the      |                 |
 |  silver screen  |    moonbeam     |   alien side    |                 |
E|-----------------|-----------------|-----------------|-----------------|
B|-----------------|-----------------|-3-3-3-3-3-3-3-3-|-----------------|
G|-----------------|-----------------|-----------------|-----------------|
D|-0-4-4-4-4-2-0-0-|-----------------|-2-2-2-2-2-------|-0-4-4-4-4-2-0-0-|
A|-----------------|-2-2-2-2-2-0-0-0-|-3-3-3-3-3-3-----|-----------------|
D|-----------------|-----------------|-----------------|-----------------|


                                (Riff 2a)
          |-----------------------------------------------------|
          |     Cool in     | you can unlock  |                 |
          |   your pocket   |   this night    |                 |
         E|-----------------|-----------------|-----------------|
         B|-----------------|-----------------|-----------------|
         G|-----------------|-----------------|-----------------|
         D|-----------------|-----------------|-0-4-4-4-4-2-0-0-|
         A|-2-2-2-2-2-2-2-2-|-2-2-2-2-2-2-2-2-|-----------------|
         D|-----------------|-----------------|-----------------|


                                (Riff 2b)
 |-----------------------------------------------------------------------|
 |    Cool in      |     you can     | you can't help  |     it's        |
 |  your pocket    |    unlock it    |  but decide.... |    alright      |
E|-----------------|-----------------|-----------------|-----------------|
B|-----------------|-----------------|---------------3-|-3-3-3-3-3-3-3-3-|
G|-----------------|-----------------|-----------------|-----------------|
D|-----------------|-----------------|-5-5-5-5---7---2-|-2-2-2-2---------|
A|-2-2-2-2-2-2-2-2-|-2-2-2-2-2-2-2-2-|---------------3-|-3-3-3-3-3-------|
D|-----------------|-----------------|-----------------|-----------------|


                                (Riff 3)
                   E|---------------|---------------|
                   B|---------------|-3---3---------|
                   G|---------------|---------------|
                   D|-4---4/7\5---5-|-2---2---------|
                   A|---------------|-3---3---2---0-|
                   D|---------------|---------------|

~~~~~~~~~~~~~~~~~~~~~~~~~~~~~~~~~~~~~~~~~~~~~~~~~~~~~~~~~~~~~~~~~~~~~~~~~~~~
Note below, within the lyrics are the riff numbers (1),(2a),(2b)&(3). This
shows you when to play what, so you can play the song from beginning to end.
~~~~~~~~~~~~~~~~~~~~~~~~~~~~~~~~~~~~~~~~~~~~~~~~~~~~~~~~~~~~~~~~~~~~~~~~~~~~

Lyrics:

(1)x2
(1)Right off the silver screen, into a moonbeam, to the alien side.
(1)Catch up with Jesus, the stars beneath us. Owata beautiful night.

(2a)Cool in your pocket, you can unlock this night.
(2b)Cool in your pocket, you can unlock it.
    You can't help but decide it's alright.

(1)Owata beautiful sight, you are to me.
(1)Owata beautiful night.

(2a)Cool in your pocket, rocks for your rocket ride.
(2b)Cool in your pocket, you can unlock this.
    You can't stop this night outside.

(1)Owata beautiful night.
(1)

(1)Start up the revelry, roll out the cavalry, into the waters we dive.
(1)Shimmers on the cosmos, ripple the uppermost, of the quivering tide.

(2a)Locks for your locket, you can unlock it's fist.
(2b)Rocks for your rocket, you can unlock it.
    Shots for your socket eyes that shine, yeah.

(1)Owata beautiful sight, you are to me.
(1)Owata beautiful night.
(1)Owata beautiful sight, you are to me.
(1)Owata beautiful night.

(3)x2

(3)Night....night....Owata beautiful night.
(3)Night....night....Owata beautiful night.

(1)Owata beautiful night.
(1)Owata beautiful sight, you are to me.
(1)Owata beautiful night.

(1) x6 (During Solo)

(1)Night, night.
(1)Owata beautiful night, night.
(1)Owata beautiful night, night.
(1)Owata beautiful night, night.
(1)Owata beautiful night.

~~~~~~~~~~~~~~~~~~~~~~~~~~~~~~~~~~~~~~~~~~~~~~~~~~~~~~~~~~~~~~~~~~~~~~~~~~~~

Owata beautiful tab!
            
Submit corrections

comments powered by Disqus
↑ Back to top | Smashing Pumpkins Tabs for Owata. Lyrics for acoustic guitar and electric guitar. 1 Tablatures and chords are parodies/interpretations of the original songs. You may use it for private study, scholarship, research or language learning purposes only