» » »

Smashing Pumpkins, Owata Tabs (ver.1)

Artists:  A B C D E F G H I J K L M N O P Q R S T U V W X Y Z # 

Owata Tabs (ver.1)

Smashing Pumpkins Tabs
 Rating:
4/5 (4 votes)
Owata lessons Tabs too difficult? Try these video lessons and learn fast
                The Smashing Pumpkins
Teargarden by Kaleidyscope, Volume 3.

Great song, i really love the song, Billy's a genious
Listen to the song for timing, it's HIGHLY recommended

Drop D Tuning

Intro
|-----7--------8-------8------8--7-|
|---8-------8--------8------8------|
|-0------0--------10------0--------|
|----------------------------------|
|----------------------------------|
|----------------------------------|

Synth Intro
|---10---10---10---------3---3---3-10-----8-7-8-7-8-7--5--3--|
|-8----8----8----8-----5---5---5-----------------------------|
|------------------------------------------------------------|
|------------------------------------------------------------|
|------------------------------------------------------------|
|------------------------------------------------------------|


"Right off the Silver screen"
|-----7--------8-------8------8--7-|
|---8-------8--------8------8------|
|-0------0--------10------0--------|
|----------------------------------|
|----------------------------------|
|----------------------------------|

|---10---10---10---------3---3---3-10-----8-7-8-7-8-7--5--3--|
|-8----8----8----8-----5---5---5-----------------------------|
|------------------------------------------------------------|
|------------------------------------------------------------|
|------------------------------------------------------------|
|------------------------------------------------------------|

|------------------------------------------------------------|
|-9-9-9-9-7-5-------------5----------------------------------|
|---------------7-7-7-7-9------------------------------------|
|-------------------------------8--8--10--12--10--8--7-------|


"Cool in your Pocket..."
|-3---5---3-5--3---------3---5---3-5--7--3~~-|
|--------------------------------------------|
|--------------------------------------------|
|--------------------------------------------| X2
|--------------------------------------------|
|--------------------------------------------|

Repeat all above, for the chorus and the verse, 

After repeating, you come to this solo
|---------------------------------------|
|-8~--8--6--5--6----6--5----------------|
|-------------------------7--5-5--7--7~-|
|---------------------------------------|
|---------------------------------------|
|---------------------------------------|

2 Guitars
|---8--7----8-7-8--10~~~~----10-12-10-8-7-5--8-7-3~~~|
|--------8-------------------------------------------|
|----------------------------------------------------|
|----------------------------------------------------|
|----------------------------------------------------|
|----------------------------------------------------|

"Night, Night, What a Beautiful Night"
|------------------------------------------------|
|------8----------8---------8--------------------|
|--4~----7--5--7-----7-5-7----7-5~~--------------| X2
|------------------------------------------------|
|------------------------------------------------|
|------------------------------------------------|

This is Just billy's guitar, he has a Capo on the 5h fret

"Oh California"
|-----------------------------------------------|
|------8-X-8---8-----5-X-5---5---8-----6-6-X-6--|
|------7-X-7---7-----5-X-5---5---------5-5-X-5--|
|-5-5--9-X-9-5-9-5-5-7-X-7-5-7-5-5-5-7-7-7-X-7--|X2
|-5-5--5-X-5-5-5-5-5-7-X-7-5-7-5-5-5-8-8-8-X-8--|
|-5-5--5-X-5-5-5-5-5-5-X-5-5-5-5-5-5-8-8-8-X-8--|

after this, just repeat the chorus a few times
Thank you for reading
            
Submit corrections

comments powered by Disqus
↑ Back to top | Smashing Pumpkins Tabs for Owata. Lyrics for acoustic guitar and electric guitar. Tablatures and chords are parodies/interpretations of the original songs. You may use it for private study, scholarship, research or language learning purposes only