» » »

Jennifer Ever Bass tabs (ver.1)

Artists:  A B C D E F G H I J K L M N O P Q R S T U V W X Y Z # 

Jennifer Ever Bass tabs (ver.1)

Smashing Pumpkins
Rating:
0/5 (0 votes)

Hard to play? Try these video lessons and learn fast.
                (1)
Tunning: I have no idea what the tunning is to this song...your just gonna
have to match Darcy's...sorry

Riff 1
G|-----------------------------------------------------|
D|--------------------------------------5--5-5-5-------|
A|---------------------------------7--7----------8--8--|
E|5--5-5-5--5-5--5-5-5-1-1--5--5-5---------------------|


Then Play:

Riff 2
G|---------------------------|
D|---------------------------|
A|---------------------2--2--|
E|5--5-5-5--5-5--3-3-3-------|

When Billy starts singing start playing Riff 1 again
Then at "My couple No one" play:

Riff 3               Play 3 times  |
G|---------------------------------|-----------------|
D|---------------------------------|-----------------|
A|---------------------------------|-----------------|
E|5-5-5-5-5-5-5-5-0-0-0-0-0-0-0-0--|1-1-1-1-1-1-1-1--|

During the chorus play Riff 2

Then Riff 1, then Riff 3, Riff2, Play a bunch of F(2nd fret on E) in
the middle 
then go back to Riff 2 and do the same again. 
Then Riff 3, then just play Riff 2 till the end.

Tab made by Nathan Amber. Send questions and comments to
            
Hard to play? Try these video lessons and learn fast. | Correct




comments powered by Disqus
↑ Back to top | Tablatures and chords are parodies/interpretations of the original songs. You may use it for private study, scholarship, research or language learning purposes only