» » »

Smashing Pumpkins, Jennifer Ever Tabs (ver.1)

Artists:  A B C D E F G H I J K L M N O P Q R S T U V W X Y Z # 

Jennifer Ever Tabs (ver.1)

Smashing Pumpkins Tabs
 Rating:
4/5 (4 votes)
Jennifer Ever lessons Tabs too difficult? Try these video lessons and learn fast
                Jennifer Ever - by Smashing Pumpkins

                    Jennifer Ever
                    =============

(Note: I'm not a guitarist (yet?), so any tabbing errors shouldn't be
flamed...  (It's my first time! ) I am open to suggestions/
improvements, though :) I did use a guitar to figure this out...
14 years of piano => good ability to "play by ear" & figure stuff out :)
Also makes it much easier to self-teach another instrument... Anyway.)

Standard tuning, fairly easy song (i.e. I can play it... :> )


Begin w/ pickup on an F chord, then play through main progression a couple
times, then the tab...
Main chord progressions: Am/Am2... F | Am Em G F | (repeat)
for chorus ("My...noone"): Am Em | Am Em | Am Em | F ("someone just...")

Am         Am2   Am  Am2        F
She always waits for someone

Am             Em    G         F
Someone who'll never leave

Am       Am2 Am Am2     F
Reliving her decision

Am       Em    G   F
Her arms cover me


Am         Em
My couple, noone

Am       Em
To anyone believe

Am                   Em
She always waits for someone

F                            (tab)
Someone, someone just like me

 (tab)
Jennifer
Jennifer ever
Jennifer


(same chord pattern repeats for other verses):

Jennifer always tells me
Please don't be afraid
I just want to hold you
I only want you to stay

My couple, noone
To anyone believe
She always waits for someone
Someone
Someone just like me

Jennifer
Jennifer ever
Jennifer

Jennifer
Jennifer ever
Jennifer

My couple, noone
To anyone believe
She always waits for someone
Someone
Someone just like me

Jennifer
Jennifer ever
Jennifer

----------------------
Chords:

   Am  Am2  Em  F  G 
E---0---0----0--1--3-
B---1---0----0--1--0-
G---2---2----0--2--0-
D---2---2----2--3--0-
A---0---0----2--3--2-
E---x---x----0--1--3-

The following tab is played during the "Jennifer...Jennifer ever..." part,
and a few times elsewhere, i.e. beginning, between w/o singing, etc....


E|---------------|---------------|
B|---------------|--------0------|
G|---------------|----------2----|
D|----2---3---2--|----3-------3--| (repeat 3x, on 4th time play F chord on
A|0-0---0---0----|---------------|  last beat as pickup to next measure)
E|--------------3|--3---3--------|



Here's what I got for the solo:

  a       a2 a a2         F       a       e     G             F
E|---------------|---------------|---------------|-------------------|
B|--1-1-1-0-----0|---------------|---------------|----------------0-1|
G|------------2--|--2------------|--------0-2-3-2|--3-2/3\2-0--------|
D|---------------|---------------|--0-2-3--------|-------------------|
A|---------------|---------------|---------------|-------------------|
E|---------------|---------------|---------------|-------------------|

  a    a2     a a2          F         a       e         G
E|-----------------|-----------------|---------------|--3-3-3-3-3-3-3|
B|--0---0---1-3-3/5|--5-5-0-0/1\0---1|--0-1-0---0----|--0-0-0-0-0-0-0|  L8er...          -Eric

--
"Yesterday will come with tomorrow's sun, and merry-go-round stuck on muddy
ground, 19 yelping fools, half-waits spouting drool, half of which half some,
the others have none, I knew all along..."   -Voivod, The Unknown Knows
            
Submit corrections

comments powered by Disqus
↑ Back to top | Smashing Pumpkins Tabs for Jennifer Ever. Lyrics for acoustic guitar and electric guitar. Tablatures and chords are parodies/interpretations of the original songs. You may use it for private study, scholarship, research or language learning purposes only