» » »

Smashing Pumpkins, Daphne Descends Tabs (ver.1)

Artists:  A B C D E F G H I J K L M N O P Q R S T U V W X Y Z # 

Daphne Descends Tabs (ver.1)

Smashing Pumpkins Tabs
 Rating:
4/5 (4 votes)
Daphne Descends lessons Tabs too difficult? Try these video lessons and learn fast
1
                This is a version I came up with for this song. Notice at some parts the
strumming pattern must follow the drum machine instead of just letting
 the chords ring, this way it'll sound a little bit more like the original
 version (if you've got no synths and/or drum machine).

Also notice the tuning is down half-step EXCEPT for "G" which remains the same.

Hope this helps.

-------------------------------------------------------------------------------
                             DAPHNE DESCENDS  - The Smashing Pumpkins
-------------------------------------------------------------------------------


Tuning: Eb Ab Db G Bb Eb



Intro

Guitar 1
Eb|-----|
Bb|-----|
G |-12b-| X4
Db|-----|
Ab|-----|
Eb|-----|
b=bending

Guitar 2
Eb|-----0------0------0------0-|  |
Bb|-----0------0------0------0-|  |
G |-----0------0------0------0-|  |
Db|-6-6-6-66-6-6-66-6-6-66-6-6-|  |
Ab|-6-6-6-66-6-6-66-6-6-66-6-6-|  |
Eb|-4-4---44-4---44-4---44-4---|  |
                                  |X2
Eb|-----0------0------0------0-|  |
Bb|-----0------0------0------0-|  |
G |-----0------0------0------0-|  |
Db|-2-2-2-22-2-2-22-2-2-22-2-2-|  |
Ab|-2-2-2-22-2-2-22-2-2-22-2-2-|  |
Eb|-0-0---00-0---00-0---00-0---|  |


Verse 1
(With the sugar sickness, you spy the kidnap kid...)

Guitar 1
Eb|-----|
Bb|-----|
G |-12b-| X8
Db|-----|
Ab|-----|
Eb|-----|

Guitar 2
Eb|-----0------0------0------0-|  |
Bb|-----0------0------0------0-|  |
G |-----0------0------0------0-|  |
Db|-6-6-6-66-6-6-66-6-6-66-6-6-|  |
Ab|-6-6-6-66-6-6-66-6-6-66-6-6-|  |
Eb|-4-4---44-4---44-4---44-4---|  |
                                  |X3
Eb|-----0------0------0------0-|  |
Bb|-----0------0------0------0-|  |
G |-----0------0------0------0-|  |
Db|-2-2-2-22-2-2-22-2-2-22-2-2-|  |
Ab|-2-2-2-22-2-2-22-2-2-22-2-2-|  |
Eb|-0-0---00-0---00-0---00-0---|  |

Eb|------------------|
Bb|------------------|
G |------------------|
Db|-44444444-6666666-|
Ab|-44444444-6666666-|
Eb|-22222222-4444444-|


Chorus 1
(You love him. You love him more than this...)

Guitar 1 (vibrato?)
Eb|----------|
Bb|-17/16/12-|
G |----------|X3
Db|-14/13/9--|
Ab|----------|
Eb|----------|

Eb|-----|
Bb|-----|
G |-10b-|
Db|-----|
Ab|-----|
Eb|-----|

Guitar 2

Eb|-0r-0r-|
Bb|-0r-0r-|
G |-0r-0r-| X3
Db|-2r-6r-|
Ab|-2r-6r-|
Eb|-0r-4r-|

Eb|----|
Bb|----|
G |-0r-|
Db|-4r-|
Ab|-4r-|
Eb|-2r-|

Verse 2
(Past sidewalk ashes, a last lover's arc...)

Guitar 1
Eb|-----|
Bb|-----|
G |-12b-| X8
Db|-----|
Ab|-----|
Eb|-----|

Guitar 2
Eb|-----0------0------0------0-|  |
Bb|-----0------0------0------0-|  |
G |-----0------0------0------0-|  |
Db|-6-6-6-66-6-6-66-6-6-66-6-6-|  |
Ab|-6-6-6-66-6-6-66-6-6-66-6-6-|  |
Eb|-4-4---44-4---44-4---44-4---|  |
                                  |X3
Eb|-----0------0------0------0-|  |
Bb|-----0------0------0------0-|  |
G |-----0------0------0------0-|  |
Db|-2-2-2-22-2-2-22-2-2-22-2-2-|  |
Ab|-2-2-2-22-2-2-22-2-2-22-2-2-|  |
Eb|-0-0---00-0---00-0---00-0---|  |

Eb|------------------|
Bb|------------------|
G |------------------|
Db|-44444444-6666666-|
Ab|-44444444-6666666-|
Eb|-22222222-4444444-|

Chorus 2
(You love him. You love him fot yourself...)

Guitar 1 (vibrato?)
Eb|----------|
Bb|-17/16/12-|
G |----------|X2
Db|-14/13/9--|
Ab|----------|
Eb|----------|

Eb|-----|
Bb|-----|
G |-10b-|
Db|-----|
Ab|-----|
Eb|-----|

Guitar 2

Eb|-0r-0r----|
Bb|-0r-0r----|
G |-0r-0r-0r-|
Db|-2r-6r-4r-|
Ab|-2r-6r-4r-|
Eb|-0r-4r-2r-|


Interlude
(At the winding vines, the prety boys dive...)

Guitar 1 (w/vibrato?)
Eb|----------|
Bb|-17/16/12-|
G |----------| X8
Db|----------|
Ab|----------|
Eb|----------|

Guitar 2
Eb|-0r-0r-|
Bb|-0r-0r-|
G |-0r-0r-| X8
Db|-2r-6r-|
Ab|-2r-6r-|
Eb|-0r-4r-|

Eb|----|
Bb|----|
G |-0r-|
Db|-4r-|
Ab|-4r-|
Eb|-2r-|


Chorus 3/Outro (fading out)
(You love him. You love him for yourself...)

Guitar 1 (vibrato?)
Eb|----------|
Bb|-17/16/12-|
G |----------|X6
Db|-14/13/9--|
Ab|----------|
Eb|----------|

Eb|-----|
Bb|-----|
G |-10b-|
Db|-----|
Ab|-----|
Eb|-----|

Eb|----------|
Bb|-17/16/12-|
G |----------|X6
Db|-14/13/9--|
Ab|----------|
Eb|----------|

Eb|-----|
Bb|-----|
G |-10b-|
Db|-----|
Ab|-----|
Eb|-----|

Guitar 2
                              
Eb|-----0------0------0------0-|  |
Bb|-----0------0------0------0-|  |
G |-----0------0------0------0-|  |
Db|-2-2-2-22-2-2-22-2-2-22-2-2-|  |
Ab|-2-2-2-22-2-2-22-2-2-22-2-2-|  |
Eb|-0-0---00-0---00-0---00-0---|  |
                                  |x3
Eb|-----0------0------0------0-|  |
Bb|-----0------0------0------0-|  |
G |-----0------0------0------0-|  |
Db|-6-6-6-66-6-6-66-6-6-66-6-6-|  |
Ab|-6-6-6-66-6-6-66-6-6-66-6-6-|  |
Eb|-4-4---44-4---44-4---44-4---|  |

Eb|------------------|
Bb|------------------|
G |------------------|
Db|-44444444-6666666-|
Ab|-44444444-6666666-|
Eb|-22222222-4444444-|

Eb|-----0------0------0------0-|  |
Bb|-----0------0------0------0-|  |
G |-----0------0------0------0-|  |
Db|-2-2-2-22-2-2-22-2-2-22-2-2-|  |
Ab|-2-2-2-22-2-2-22-2-2-22-2-2-|  |
Eb|-0-0---00-0---00-0---00-0---|  |
                                  |x3
Eb|-----0------0------0------0-|  |
Bb|-----0------0------0------0-|  |
G |-----0------0------0------0-|  |
Db|-6-6-6-66-6-6-66-6-6-66-6-6-|  |
Ab|-6-6-6-66-6-6-66-6-6-66-6-6-|  |
Eb|-4-4---44-4---44-4---44-4---|  |

Eb|------------------|
Bb|------------------|
G |------------------|
Db|-44444444-6666666-|
Ab|-44444444-6666666-|
Eb|-22222222-4444444-|
            
Submit corrections

comments powered by Disqus
↑ Back to top | Smashing Pumpkins Tabs for Daphne Descends. Lyrics for acoustic guitar and electric guitar. 1 Tablatures and chords are parodies/interpretations of the original songs. You may use it for private study, scholarship, research or language learning purposes only