» » »

Smashing Pumpkins, Daphne Descends Tabs (ver.2)

Artists:  A B C D E F G H I J K L M N O P Q R S T U V W X Y Z # 

Daphne Descends Tabs (ver.2)

Smashing Pumpkins Tabs
 Rating:
4/5 (4 votes)
Daphne Descends lessons Tabs too difficult? Try these video lessons and learn fast
                (Live)
-------------------------------------------------------------------------------
                            Daphne Decends Live - Smashing Pumpkins
-------------------------------------------------------------------------------

Tuning: 1/2 Step Down


Live from the secret gig at the Sydney Shipping Terminal 98'
This is a really simple song there isn't alot to it. James uses an ebow for his whole 
and it changes every now and then
it's all slides and pull off's pretty much every note is a slide to the next note saves 
having to write / and \ every second note
 Every note from James has heavy vibrato and Billy's struming follows the drums exactly 
doesn't play every beat... sorta like
down down up down up down up down down down then repeat... or do it your way either way 
sound good.
with James's section listen to the song to get the timing right as it was going to be to 
to tab in time to the lyrics.


James:0:19
|-----------------|
|-----------------|
|-9/12/9---9/12/9-|
|-----------------|
|-----------------|
|-----------------|


Intro

Billy: 0:24
|-------------------------------------------------------------------------|
|-------------------------------------------------------------------------|
|-------------------------------------------------------------------------|
|---6---6-6---6-6---6-6-----6--6--6----6---6-6---6-6---6-6-----6--6--6-x--|
|---6-%-6-6-%-6-6-%-6-6-----7--7--7----6-%-6-6-%-6-6-%-6-6-----7--7--7-x--|
|---4---4-4---4-4---4-4-----x--x--x----4---4-4---4-4---4-4-----x--x--x-x--|

James:0:24
|-------------------------------------------------------------------------|
|-------------------------------------------------------------------------|
|----13--13b13b13b--13---13--13b13b13b--13h11---13--13b13b13b--13---------|
|-------------------------------------------------------------------------|
|-------------------------------------------------------------------------|
|-------------------------------------------------------------------------|

Billy:
|-------------------------------------------------------------------------|
|-------------------------------------------------------------------------|
|-------------------------------------------------------------------------|
|4-%-4-4-%-4-4-%-4-4-%-4-4-/--6-%-6-6-%-6-6-%-6-6-------------------------|
|4-%-4-4-%-4-4-%-4-4-%-4-4-/--6-%-6-6-%-6-6-%-6-6-------------------------|
|2---2-2---2-2---2-2---2-2-/--4---4-4---4-4---4-4-------------------------|

James:
|-------------------------------------------------------------------------|
|-------------------------------------------------------------------------|
|--13--13b13b13b--13h11---------13--13b13b13b--13-------------------------|
|-------------------------------------------------------------------------|
|-------------------------------------------------------------------------|
|-------------------------------------------------------------------------|

Billy:0:40
|-------------------------------------------------------------------------|
|-------------------------------------------------------------------------|
|-------------------------------------------------------------------------|
|---6---6-6---6-6---6-6-----6--6--6----6---6-6---6-6---6-6-----6--6--6-x--|
|---6-%-6-6-%-6-6-%-6-6-----7--7--7----6-%-6-6-%-6-6-%-6-6-----7--7--7-x--|
|---4---4-4---4-4---4-4-----x--x--x----4---4-4---4-4---4-4-----x--x--x-x--|

James:0:41
|-------------------------------------------------------------------------|
|-------------------------------------------------------------------------|
|---/13--16--18---18h19-18h19--/13--16--18--18h19--18h19------------------|
|-------------------------------------------------------------------------|
|-------------------------------------------------------------------------|
|-------------------------------------------------------------------------|

Billy:0:49
|-------------------------------------------------------------------------|
|-------------------------------------------------------------------------|
|-------------------------------------------------------------------------|
|4-%-4-4-%-4-4-%-4-4-%-4-4-/--6-%-6-6-%-6-6-%-6-6-------------------------|
|4-%-4-4-%-4-4-%-4-4-%-4-4-/--6-%-6-6-%-6-6-%-6-6-------------------------|
|2---2-2---2-2---2-2---2-2-/--4---4-4---4-4---4-4-------------------------|

James:0:50
|---------------------------------------------|
|---------------------------------------------|
|---18h1918h1918h1918h1918h1918h19\/13-13-----|
|---------------------------------------------|
|---------------------------------------------|
|---------------------------------------------|

Verse:

Billy 0:57
   The Sugar Sickness                      You Spyed The Kidnapped Kid
|-------------------------------------------------------------------------|
|-------------------------------------------------------------------------|
|-------------------------------------------------------------------------|
|---6---6-6---6-6---6-6-----6--6--6----6---6-6---6-6---6-6-----6--6--6-x--|x2
|---6-%-6-6-%-6-6-%-6-6-----7--7--7----6-%-6-6-%-6-6-%-6-6-----7--7--7-x--|
|---4---4-4---4-4---4-4-----x--x--x----4---4-4---4-4---4-4-----x--x--x-x--|

James:0:57
|-------------------------------------------------------------------------|
|-------------------------------------------------------------------------|
|----13--13b13b13b--13---13--13b13b13b--13h11---13--13b13b13b--13---------|
|-------------------------------------------------------------------------|x2
|-------------------------------------------------------------------------|
|-------------------------------------------------------------------------|

Billy:  Who Kids You To Oblivion
|-------------------------------------------------------------------------|
|-------------------------------------------------------------------------|
|-------------------------------------------------------------------------|
|4-%-4-4-%-4-4-%-4-4-%-4-4-/--6-%-6-6-%-6-6-%-6-6-------------------------|x2
|4-%-4-4-%-4-4-%-4-4-%-4-4-/--6-%-6-6-%-6-6-%-6-6-------------------------|
|2---2-2---2-2---2-2---2-2-/--4---4-4---4-4---4-4-------------------------|

James:
|-------------------------------------------------------------------------|
|-------------------------------------------------------------------------|
|--13--13b13b13b--13h11---------13--13b13b13b--13-------------------------|
|-------------------------------------------------------------------------|x2
|-------------------------------------------------------------------------|
|-------------------------------------------------------------------------|

Billy:1:32
                     You Love Him
|----------------------------------------|
|----------------------------------------|
|----------------------------------------|
|--6--6--6--6--6--6---6--6--6--6--6--6---|
|--7--7--7--7--7--7---6--6--6--6--6--6---|
|--x--x--x--x--x--x---4--4--4--4--4--4---|

James:1:32
|-------------------------------------------------------------------------|
|-------------------------------------------------------------------------|
|--9--8----4----9--8h9h8--4----9-8h9h8h9/13--11---------------------------|
|-------------------------------------------------------------------------|
|-------------------------------------------------------------------------|
|-------------------------------------------------------------------------|

Billy:
And No One No One Else
|-------------------------|
|-------------------------|
|-------------------------|
|--4--4-4--4-4--4-4--4-4--|
|--4--4-4--4-4--4-4--4-4--|
|--2--2-2--2-2--2-2--2-2--|

Billy:                You Love him
|----------------------------------------|
|----------------------------------------|
|----------------------------------------|
|--6--6--6--6--6--6---6--6--6--6--6--6---|
|--7--7--7--7--7--7---6--6--6--6--6--6---|
|--x--x--x--x--x--x---4--4--4--4--4--4---|

|-------------------------------------------------------------------------|
|-------------------------------------------------------------------------|
|--9--8----4----9--8h9h8--4----9-8h9h8h9/13--11---------------------------|
|-------------------------------------------------------------------------|
|-------------------------------------------------------------------------|
|-------------------------------------------------------------------------|

Billy:
 And You Can Not You Can't Resist
|-------------------------|
|-------------------------|
|-------------------------|
|--4--4-4--4-4--4-4--4-4--|
|--4--4-4--4-4--4-4--4-4--|
|--2--2-2--2-2--2-2--2-2--|

Billy 2:06
|-------------------------------------------------------------------------|
|-------------------------------------------------------------------------|
|-------------------------------------------------------------------------|
|---6---6-6---6-6---6-6-----6--6--6----6---6-6---6-6---6-6-----6--6--6-x--|
|---6-%-6-6-%-6-6-%-6-6-----7--7--7----6-%-6-6-%-6-6-%-6-6-----7--7--7-x--|
|---4---4-4---4-4---4-4-----x--x--x----4---4-4---4-4---4-4-----x--x--x-x--|

James:2:06
|--------------------------------------------------------------------------------------------|
|--------------------------------------------------------------------------------------------|
|--/13--16--18-18h19-18h19--/13--16--18--18h19--18h19--18h1918h1918h1918h1918h1918h19\/13-13-|
|--------------------------------------------------------------------------------------------|
|--------------------------------------------------------------------------------------------|
|--------------------------------------------------------------------------------------------|


Billy 2:22
   Past Sidewalk Ashes             A Last Lovers Arc
|-------------------------------------------------------------------------|
|-------------------------------------------------------------------------|
|-------------------------------------------------------------------------|
|---6---6-6---6-6---6-6-----6--6--6----6---6-6---6-6---6-6-----6--6--6-x--|
|---6-%-6-6-%-6-6-%-6-6-----7--7--7----6-%-6-6-%-6-6-%-6-6-----7--7--7-x--|
|---4---4-4---4-4---4-4-----x--x--x----4---4-4---4-4---4-4-----x--x--x-x--|

Billy:  You Come Apart
|-------------------------------------------------------------------------|
|-------------------------------------------------------------------------|
|-------------------------------------------------------------------------|
|4-%-4-4-%-4-4-%-4-4-%-4-4-/--6-%-6-6-%-6-6-%-6-6-------------------------|
|4-%-4-4-%-4-4-%-4-4-%-4-4-/--6-%-6-6-%-6-6-%-6-6-------------------------|
|2---2-2---2-2---2-2---2-2-/--4---4-4---4-4---4-4-------------------------|

James:
|-------------------------------------------------------------------------|
|-------------------------------------------------------------------------|
|--9h0--8h0--4h0----9h0--8h0-4h0--13-11-----------------------------------|
|-------------------------------------------------------------------------|
|-------------------------------------------------------------------------|
|-------------------------------------------------------------------------|

Billy:2:53            You Love Him
|----------------------------------------|
|----------------------------------------|
|----------------------------------------|
|--6--6--6--6--6--6---6--6--6--6--6--6---|x3
|--7--7--7--7--7--7---6--6--6--6--6--6---|
|--x--x--x--x--x--x---4--4--4--4--4--4---|

James:2:53
|-------------------------------------------------------------------------|
|-------------------------------------------------------------------------|
|--9--8----4----9--8h9h8--4----9-8h9h8h9/13-----11------------------------|
|-------------------------------------------------------------------------|
|-------------------------------------------------------------------------|
|-------------------------------------------------------------------------|

Billy:
And You Can Not You Can't Resist
|-------------------------|
|-------------------------|
|-------------------------|
|--4--4-4--4-4--4-4--4-4--|
|--4--4-4--4-4--4-4--4-4--|
|--2--2-2--2-2--2-2--2-2--|


James:3:07
|---------------------------------|
|---------------------------------|
|--------9---11---1---------------|
|---------------------------------|
|---------------------------------|
|---------------------------------|

Interlude:

Billy 3:10 And The Winding Vines
|-------------------------------|
|-------------------------------|
|-------------------------------|
|--6-6--6-6--6-6--4-4--6-6--4-4-|x2
|--7-7--6-6--7-7--4-4--7-7--4-4-|
|--x-x--4-4--x-x--2-2--x-x--2-2-|

James:3:10
|----------------------------------------------------------|
|----------------------------------------------------------|
|-21--20--16----21--20--16---9--8h9h8h9/4---21--20--16-----|
|----------------------------------------------------------|
|----------------------------------------------------------|
|----------------------------------------------------------|

James:
|--------------------------------------------------------------------------|
|--------------------------------------------------------------------------|
|--9--8h9-/4----9--8h9h8h9/13-----9--8h9h8h9/4----9--8h9h8h9/13---11-------|
|--------------------------------------------------------------------------|
|--------------------------------------------------------------------------|
|--------------------------------------------------------------------------|

Billy 3:46
 This Boy Is Here And Gone
|---------------------|
|---------------------|
|---------------------|
|--4-4-4-4-4-4-4-4-4--|
|--4-4-4-4-4-4-4-4-4--|
|--2-2-2-2-2-2-2-2-2--|

Billy:3:49             You Love Him
|----------------------------------------|
|----------------------------------------|
|----------------------------------------|
|--6--6--6--6--6--6---6--6--6--6--6--6---|x3
|--7--7--7--7--7--7---6--6--6--6--6--6---|
|--x--x--x--x--x--x---4--4--4--4--4--4---|

James:3:49
|---------------------------------------------------------------------------|
|---------------------------------------------------------------------------|
|-20-15---9--8h9h8h9/4---9--8h9h8h9/13--13h9--9-8h9-/4----9--8h9h8h9/13--h11|
|---------------------------------------------------------------------------|
|---------------------------------------------------------------------------|
|---------------------------------------------------------------------------|

Billy:
 You Love Him
|--------------------------------------------|
|--------------------------------------------|
|--------------------------------------------|
|-6--6--6--6--6--6----4--4-4--4-4--4-4--4-4--|
|-6--6--6--6--6--6----4--4-4--4-4--4-4--4-4--|
|-4--4--4--4--4--4----2--2-2--2-2--2-2--2-2--|

Billy:
 You Love Him
|----------------------------------------|
|----------------------------------------|
|----------------------------------------|
|--6--6--6--6--6--6---6--6--6--6--6--6---|x3
|--7--7--7--7--7--7---6--6--6--6--6--6---|
|--x--x--x--x--x--x---4--4--4--4--4--4---|

Billy:4:22
  You Love Him
|------------------------------------|
|------------------------------------|
|------------------------------------|
|--h6-6--h6-6--h6-6-h4-4--h6-6--h4-4-|
|--h7-7--h6-6--h7-7-h4-4--h7-7--h4-4-|
|--------h4-4-------h2-2--------h2-2-|

James:4:22
|---------------------------------------------------------------------------------|
|---------------------------------------------------------------------------------|
|--9--8-8--4-4--9--8h9h8h9/13--9--8h9-/4----9--8h9h8h9/13---9--8-8--4-4---Feedback|
|---------------------------------------------------------------------------------|
|---------------------------------------------------------------------------------|
|---------------------------------------------------------------------------------|

Finish on
Billy:5:03
|------------|
|------------|
|----3~------|
|---4--------|
|--4---------|
|-2----------|

James:5:03
|------------|
|------------|
|---20-------|
|------------|
|------------|
|------------|

************************************

| %   Rest
| /   slide up
| \   slide down
| h   hammer-on
| p   pull-off
| ~   vibrato
| +   harmonic
| x   Mute note
| b   Bend
| pb  Pre-bend
| br  Bend release
| pbr Pre-bend release
| brb Bend release bend

************************************

.
!!
            
Submit corrections

comments powered by Disqus
↑ Back to top | Smashing Pumpkins Tabs for Daphne Descends. Lyrics for acoustic guitar and electric guitar. Tablatures and chords are parodies/interpretations of the original songs. You may use it for private study, scholarship, research or language learning purposes only