>
 >
Cherub Rock 2

Cherub Rock 2 Guitar Tabs

Smashing Pumpkins - Cherub Rock 2 chords, tabs, tablatures, lyrics

Guitar lessons | Add/correct | Request | Top 50 tabs Artists:  A B C D E F G H I J K L M N O P Q R S T U V W X Y Z 0-9

Cherub Rock 2 Guitar Tabs – Smashing Pumpkins

CD, Sheet music, Poster

Do you like Cherub Rock 2? Share with your friends now
Bass TabsBass Tabs v2ChordsDrum TabsTabsTabs v2Tabs v3Tabs v4Tabs v5
e|-------------------------------------
B|-------------------------------------
G|---9--9---9--9---9---9--9---9--9--9--
D|-------------------------------------
A|---7--7---7--7---7---7--7---7--7--7--
E|-0------0------0----------0----------

Guitar 1 & 2 (Distortion) 4x
e|-------------------------------------
B|-------------------------------------
G|---9--9---9--9---9---9--9---9--9--9--
D|-------------------------------------
A|---7--7---7--7---7---7--7---7--7--7--
E|-0------0------0----------0----------

Guitar 1 & 2 (Distortion) 1x
e|-------------------------------------------------------------------------------------------
B|-------------------------------------------------------------------------------------------
G|---13--13---13--13---13---13--13---13--13--13---16--16---16--16---16---16--16---16--16--16-
D|-------------------------------------------------------------------------------------------
A|---11--11---11--11---11---11--11---11--11--11---14--14---14--14---14---14--14---14--14--14-
E|-0--------0--------0-------------0------------0--------0--------0-------------0------------

Guitar 1
e|----------------------|---------------------------------------------
B|----------------------|---------------------------------------------
G|11\9--13/14--13--11\9-|-11\9--13/14--13--11\9---7--7-7-7------------
D|----------------------|-------------------------7--7-7-7--7-7--7-7--
A|-9\7--11/12--11---9\7-|--9\7--11/12--11---9\7---5--5-5-5--7-7--7-7--
E|-0----0------0----0---|--0----0------0----0---------------5-5--5-5--

Guitar 2             (pretend like there are spaces between the 11s)
e|----------------------|---------------------------||-----------------
B|----------------------|---------------------------\/-----------------
G|11\9--13/14--13--11\9-|-11\9--13/14--13--11\9--11-111111--9-9--9-9---
D|----------------------|----------------------------------------------
A|-9\7--11/12--11---9\7-|--9\7--11/12--11---9\7--9--9-9-9---7-7--7-7---
E|-0----0------0----0---|--0----0------0----0--------------------------


Guitar 1
e|----------------------|---------------------|---------------------
B|----------------------|---------------------|---------------------
G|11\9--13/14--13--11\9-|-11\9--13/14--13-11b-|11\9--13/14--13-11b--
D|----------------------|---------------------|---------------------
A|-9\7--11/12--11---9\7-|--9\7--11/12--11--9b-|-9\7--11/12--11--9b--
E|-0----0------0----0---|--0----0------0---0--|-0----0------0---0---

Guitar 2                         (bend just a little)
e|----------------------|---------------------|---------------------
B|----------------------|---------------------|---------------------
G|11\9--13/14--13--11\9-|-11\9--13/14--13-11b-|11/13-13/14--13-11b--
D|----------------------|---------------------|---------------------
A|-9\7--11/12--11---9\7-|--9\7--11/12--11--9b-|-9/11-11/12--11--9b--
E|-0----0------0----0---|--0----0------0---0--|-0----0------0---0---


Guitar 1
e|--------------------|--------------------|--------------------
B|--------------------|--------------------|--------------------
G|11\9--13/14--13-11b-|11\9--13/14--13-11b-|11\9--13/14--13-11b-
D|--------------------|--------------------|--------------------
A|-9\7--11/12--11--9b-|-9\7--11/12--11--9b-|-9\7--11/12--11--9b-
E|-0----0------0---0--|-0----0------0---0--|-0----0------0---0--
                 “Freak out...”         “Give in”

Guitar 2
e|--------------------|--------------------|--------------------
B|--------------------|--------------------|--------------------
G|11/13-13/14--13-11b-|11/13-13/14--13-11b-|11/13-13/14--13-11b-
D|--------------------|--------------------|--------------------
A|-9/11-11/12--11--9b-|-9/11-11/12--11--9b-|-9/11-11/12--11--9b-
E|-0----0------0---0--|-0----0------0---0--|-0----0------0---0--


Guitar 1
e|---------------------|-------------------|--------------------
B|---------------------|-------------------|--------------------
G|--7--7-7-7-----------|11\9--13/14--13-11b|11\9--13/14--13-11b-
D|--7--7-7-7--7-7--7-7-|-------------------|--------------------
A|--5--5-5-5--7-7--7-7-|-9\7--11/12--11--9b|-9\7--11/12--11--9b-
E|------------5-5--5-5-|-0----0------0---0-|-0----0------0---0--

Guitar 2  (pretend like there are spaces between the 11s)
e|------||-------------|-------------------|--------------------
B|------\/-------------|-------------------|--------------------
G|--11-111111-9-9--9-9-|11/13-13/14--13-11b|11/13-13/14--13-11b-
D|---------------------|-------------------|--------------------
A|--9--9-9-9--7-7--7-7-|-9/11-11/12--11--9b|-9/11-11/12--11--9b-
E|---------------------|-0----0------0---0-|-0----0------0---0--

Guitar 1
e|---------------------|-------------------|--------------------
B|---------------------|-------------------|--------------------
G|--7--7-7-7-----------|11\9--13/14--13-11b|11\9--13/14--13-11b-
D|--7--7-7-7--7-7--7-7-|-------------------|--------------------
A|--5--5-5-5--7-7--7-7-|-9\7--11/12--11--9b|-9\7--11/12--11--9b-
E|------------5-5--5-5-|-0----0------0---0-|-0----0------0---0--

Guitar 2  (pretend like there are spaces between the 11s)
e|------||-------------|-------------------|--------------------
B|------\/-------------|-------------------|--------------------
G|--11-111111-9-9--9-9-|11/13-13/14--13-11b|11/13-13/14--13-11b-
D|---------------------|-------------------|--------------------
A|--9--9-9-9--7-7--7-7-|-9/11-11/12--11--9b|-9/11-11/12--11--9b-
E|---------------------|-0----0------0---0-|-0----0------0---0--

Guitar 1 & 2 (Distortion)3x
e|-----------------------------------------
B|-----------------------------------------
G|--7--7-7-7------------5--5-5-5-----------
D|--7--7-7-7--7-7--7-7--5--5-5-5-5-5--5-5--
A|--5--5-5-5--7-7--7-7--3--3-3-3-5-5--5-5--
E|------------5-5--5-5-----------3-3--3-3--
Guitar 1 & 2
e|-----------------------------------------
B|-----------------------------------------
G|--7--7-7-7------------5--5-5-5-5-5-5-5---
D|--7--7-7-7--7-7--7-7--5--5-5-5-5-5-5-5---
A|--5--5-5-5--7-7--7-7--3--3-3-3-3-3-3-3---
E|------------5-5--5-5---------------------
Guitar 1
e|----------------------|---------------------|---------------------
B|----------------------|---------------------|---------------------
G|11\9--13/14--13--11\9-|-11\9--13/14--13-11b-|11\9--13/14--13-11b--
D|----------------------|---------------------|---------------------
A|-9\7--11/12--11---9\7-|--9\7--11/12--11--9b-|-9\7--11/12--11--9b--
E|-0----0------0----0---|--0----0------0---0--|-0----0------0---0---

Guitar 2                         (bend just a little)
e|----------------------|---------------------|---------------------
B|----------------------|---------------------|---------------------
G|11\9--13/14--13--11\9-|-11\9--13/14--13-11b-|11/13-13/14--13-11b--
D|----------------------|---------------------|---------------------
A|-9\7--11/12--11---9\7-|--9\7--11/12--11--9b-|-9/11-11/12--11--9b--
E|-0----0------0----0---|--0----0------0---0--|-0----0------0---0---


Guitar 1
e|--------------------|--------------------|--------------------
B|--------------------|--------------------|--------------------
G|11\9--13/14--13-11b-|11\9--13/14--13-11b-|11\9--13/14--13-11b-
D|--------------------|--------------------|--------------------
A|-9\7--11/12--11--9b-|-9\7--11/12--11--9b-|-9\7--11/12--11--9b-
E|-0----0------0---0--|-0----0------0---0--|-0----0------0---0--
                 “Hipsters...”         “Unite...”

Guitar 2
e|--------------------|--------------------|--------------------
B|--------------------|--------------------|--------------------
G|11/13-13/14--13-11b-|11/13-13/14--13-11b-|11/13-13/14--13-11b-
D|--------------------|--------------------|--------------------
A|-9/11-11/12--11--9b-|-9/11-11/12--11--9b-|-9/11-11/12--11--9b-
E|-0----0------0---0--|-0----0------0---0--|-0----0------0---0--


Guitar 1
e|---------------------|-------------------|--------------------
B|---------------------|-------------------|--------------------
G|--7--7-7-7-----------|11\9--13/14--13-11b|11\9--13/14--13-11b-
D|--7--7-7-7--7-7--7-7-|-------------------|--------------------
A|--5--5-5-5--7-7--7-7-|-9\7--11/12--11--9b|-9\7--11/12--11--9b-
E|------------5-5--5-5-|-0----0------0---0-|-0----0------0---0--

Guitar 2  (pretend like there are spaces between the 11s)
e|------||-------------|-------------------|--------------------
B|------\/-------------|-------------------|--------------------
G|--11-111111-9-9--9-9-|11/13-13/14--13-11b|11/13-13/14--13-11b-
D|---------------------|-------------------|--------------------
A|--9--9-9-9--7-7--7-7-|-9/11-11/12--11--9b|-9/11-11/12--11--9b-
E|---------------------|-0----0------0---0-|-0----0------0---0--

Guitar 1
e|---------------------|-------------------|--------------------
B|---------------------|-------------------|--------------------
G|--7--7-7-7-----------|11\9--13/14--13-11b|11\9--13/14--13-11b-
D|--7--7-7-7--7-7--7-7-|-------------------|--------------------
A|--5--5-5-5--7-7--7-7-|-9\7--11/12--11--9b|-9\7--11/12--11--9b-
E|------------5-5--5-5-|-0----0------0---0-|-0----0------0---0--

Guitar 2  (pretend like there are spaces between the 11s)
e|------||-------------|-------------------|--------------------
B|------\/-------------|-------------------|--------------------
G|--11-111111-9-9--9-9-|11/13-13/14--13-11b|11/13-13/14--13-11b-
D|---------------------|-------------------|--------------------
A|--9--9-9-9--7-7--7-7-|-9/11-11/12--11--9b|-9/11-11/12--11--9b-
E|---------------------|-0----0------0---0-|-0----0------0---0--

Guitar 1 & 2 (Distortion)3x
e|-----------------------------------------
B|-----------------------------------------
G|--7--7-7-7------------5--5-5-5-----------
D|--7--7-7-7--7-7--7-7--5--5-5-5-5-5--5-5--
A|--5--5-5-5--7-7--7-7--3--3-3-3-5-5--5-5--
E|------------5-5--5-5-----------3-3--3-3--

Guitar 1 & 2
e|-----------------------------------------
B|-----------------------------------------
G|--7--7-7-7------------5--5-5-5-5-5-2-2---
D|--7--7-7-7--7-7--7-7--5--5-5-5-5-5-2-2---
A|--5--5-5-5--7-7--7-7--3--3-3-3-3-3-0-0---
E|------------5-5--5-5---------------------

Guitar 1 4x
e|-------------------------------------------
B|-------------------------------------------
G|-----------7-7---------5-5-----------------
D|-2--2-2-2--7-7--7---7--5-5-5--5-5-5--------
A|-2--2-2-2--5-5--7---7--3-3-5--5-5-5--------
E|-0--0-0-0-------5---5------3--3-3-3--------

Guitar 2 (Play at same tempo as guitar 1) 4x
e|-------------------------------------------
B|-------------------------------------------
G|----------------------------1010-----------
D|13--13-13-13--12-12--11--11-1010-10-101010-
A|11--11-11-11--12-12--0---0--8-8--10-101010-
E|--------------10-10--------------8--8-8-8--

Guitar 1 & 2 
e|-------------------------------------
B|-------------------------------------
G|---9--9---9--9---9---9--9---9--9--9--
D|-------------------------------------
A|---7--7---7--7---7---7--7---7--7--7--
E|-0------0------0----------0----------

Guitar 1 & 2 
e|----------------------------------------------
B|----------------------------------------------
G|--13--13---13--13---13---13--13---13--13--13--
D|----------------------------------------------
A|--11--11---11--11---11---11--11---11--11--11--
E|0--------0--------0-------------0-------------

Guitar 1 & 2
e|----------------------------------------------
B|----------------------------------------------
G|--16--16---16--16---16---16--16---16--16--16--
D|----------------------------------------------
A|--14--14---14--14---14---14--14---14--14--14--
E|0--------0--------0-------------0-------------

Guitar 1 & 2
e|------------------------------
B|------------------------------
G|--19--19---19--19---19/21~~~~~
D|------------------------------
A|--17--17---17--17---17/19~~~~~
E|0--------0--------0-----------



Guitar 1 SOLO
 Between some of the notes hit open strings
e|------------------------------------------------21-----------------------
B|-------10~--------12b13-12--10-12-10-9-10-12-----------------------------
G|--9~~~-----9-11-9----------------------------11----------10-12-12-10-12--
D|-------------------------------------------------------------------------
A|-------------------------------------------------------------------------
E|----------------------------------------------------10fb-----------------

Ill finish the sol later


Guitar 2 (background while the solo is playing) 3x
e|------------------------------------
B|------------------------------------
G|--7--7-7-7--------------------------
D|--7--7-7-7--7-7--7-7----------------
A|--5--5-5-5--7-7--7-7--2--2-2-2-2-2-2
E|------------5-5--5-5--0--0-0-0-0-0-0

Guitar 2
e|------------------------------------
B|------------------------------------
G|--7--7-7-7------------5-5-----------
D|--7--7-7-7--7-7--7-7--5-5--5-5-5-5--
A|--5--5-5-5--7-7--7-7--3-3--5-5-5-5--
E|------------5-5--5-5-------3-3-3-3--

Guitar 2 3x
e|-----------------------------------------
B|-----------------------------------------
G|--7--7-7-7------------5--5-5-5-----------
D|--7--7-7-7--7-7--7-7--5--5-5-5-5-5--5-5--
A|--5--5-5-5--7-7--7-7--3--3-3-3-5-5--5-5--
E|------------5-5--5-5-----------3-3--3-3--

Guitar 2
e|-----------------------------------------
B|-----------------------------------------
G|--7--7-7-7------------5--5-5-5-5-5-5-5---
D|--7--7-7-7--7-7--7-7--5--5-5-5-5-5-5-5---
A|--5--5-5-5--7-7--7-7--3--3-3-3-3-3-3-3---
E|------------5-5--5-5---------------------


Guitar 2 4x
e|-------------------------------------------
B|-------------------------------------------
G|-----------7-7---------5-5-----------------
D|-2--2-2-2--7-7--7---7--5-5-5--5-5-5--------
A|-2--2-2-2--5-5--7---7--3-3-5--5-5-5--------
E|-0--0-0-0-------5---5------3--3-3-3--------


Guitar 1
e|----------------------|---------------------|---------------------
B|----------------------|---------------------|---------------------
G|11\9--13/14--13--11\9-|-11\9--13/14--13-11b-|11\9--13/14--13-11b--
D|----------------------|---------------------|---------------------
A|-9\7--11/12--11---9\7-|--9\7--11/12--11--9b-|-9\7--11/12--11--9b--
E|-0----0------0----0---|--0----0------0---0--|-0----0------0---0---

Guitar 2                         
e|----------------------|---------------------|---------------------
B|----------------------|---------------------|---------------------
G|11\9--13/14--13--11\9-|-11\9--13/14--13-11b-|11/13-13/14--13-11b--
D|----------------------|---------------------|---------------------
A|-9\7--11/12--11---9\7-|--9\7--11/12--11--9b-|-9/11-11/12--11--9b--
E|-0----0------0----0---|--0----0------0---0--|-0----0------0---0---



Guitar 1
e|----------------------|-------------------------------------------
B|----------------------|-------------------------------------------
G|11\9--13/14--13--11\9-|-13-13-13-13-13-13-13-14-14-14-14-14-14-14-
D|----------------------|-------------------------------------------
A|-9\7--11/12--11---9\7-|-11-11-11-11-11-11-11-12-12-12-12-12-12-12-
E|-0----0------0----0---|-------------------------------------------

Guitar 2                         
e|----------------------|---------------------|---------------------
B|----------------------|---------------------|---------------------
G|11\9--13/14--13--11\9-|-11\9--13/14--13-11b-|11/13-13/14--13-11b--
D|----------------------|---------------------|---------------------
A|-9\7--11/12--11---9\7-|--9\7--11/12--11--9b-|-9/11-11/12--11--9b--
E|-0----0------0----0---|--0----0------0---0--|-0----0------0---0---



Guitar 1
e|------------------------------------------------------------------
B|------------------------------------------------------------------
G|-16-16-16-16-16-16-16-16-19-19-19-19-19-19-19---------------------
D|------------------------------------------------------------------
A|-14-14-14-14-14-14-14-14-17-17-17-17-17-17-17---------------------
E|------------------------------------------------------------------

Guitar 2                         
e|----------------------|---------------------|---------------------
B|----------------------|---------------------|---------------------
G|11\9--13/14--13--11\9-|-11\9--13/14--13-11b-|---------------------
D|----------------------|---------------------|-12--2~~~------------
A|-9\7--11/12--11---9\7-|--9\7--11/12--11--9b-|-12--2~~~------------
E|-0----0------0----0---|--0----0------0---0--|-10--0~~~------------





Comments


Popular Smashing Pumpkins tabs & chords
Girl Named Sandoz Bass Tabs
Appels + Oranjes Chords
Rhinoceros Chords
Soothe Chords
Cherub Rock Drum Tabs
Aeroplane Flies High 1 Tabs
Siamese Dream 1 Tabs
Sinfony Tabs
Stellar Tabs
Today Is The Greatest Tabs


Song lyrics



↑ Back to top | Tablatures and chords are parodies/interpretations of the original songs. You may use it for private study, scholarship, research or language learning purposes only
© 2014 AZChords.com Contact us | Privacy policy | DMCA | Add/correct tabs | Request tabs | Top 50 tabs