» » »

Smashing Pumpkins, Cherub Rock Tabs (ver.1)

Artists:  A B C D E F G H I J K L M N O P Q R S T U V W X Y Z # 

Cherub Rock Tabs (ver.1)

Smashing Pumpkins Tabs
Rating:
0/5 (0 votes)
Cherub Rock lessons Tabs too difficult? Try these video lessons and learn fast
                I haven't heard the accoustic version but i think that the following is
close to the version from the CD. . .

intro:
e------------------------------------||---------------------------------
-----
b------------------------------------||---------------------------------
-----
g---9-9---9-9---9-----9-9---9-9-9----||-13-13---13-13---13--13-13--13-13
-13--
d------------------------------------||---------------------------------
-----
a---7-7---7-7---7-----7-7---7-7-7----||-11-11---11-11---11--11-11--11-11
-11--
e-0-----0-----0-----------0--------0-||0-------0------0-----------0-----
---0-
  ^       ^       ^         ^         ^         ^        ^         ^

e--------------------------------------------||-------------------------
----------||
b--------------------------------------------||-------------------------
----------||
g--16-16---16-16----16---16-16----16-16-16---||11\9------13\14---13-----
11\9------||
d--------------------------------------------||-------------------------
----------||
a--14-14---14-14----14---14-14----14-14-14---||-9\7------11\12---11-----
-9\7------||
e-0------0--------0------------0-----------0-||------0-0-------0-----0-0
------0-0-||

Repeat the first bar. The next two bars lead into the verses. 
The verses use the last bar (repeated twice) and then D and A for 2
beats each.

The chorus goes something like:

   D  A  C  G

The bridge is 

   E   D (D5?)  A    C    G/D(D5?)

I think that's most of it. you might try moving ther chords up and down
the neck. I've never seen it played live so i'm really not sure how
billy corgan does it.

           Nothing fancy, but it works.
   
              Neil Mardis
              Augustana College
              Rock Island, IL
            

comments powered by Disqus
↑ Back to top | Smashing Pumpkins Tabs for Cherub Rock. Lyrics for acoustic guitar and electric guitar. Tablatures and chords are parodies/interpretations of the original songs. You may use it for private study, scholarship, research or language learning purposes only