» » »

Slayer, Captor Of Sin Bass tabs (ver.1)

Artists:  A B C D E F G H I J K L M N O P Q R S T U V W X Y Z # 

Captor Of Sin Bass tabs (ver.1)

Slayer Tabs
 Rating:
4/5 (4 votes)
Captor Of Sin  lessons Tabs too difficult? Try these video lessons and learn fast
1
                (1)
**********************************************************************
**********************************************************************

                       Captor of Sin - Slayer
                       ======================

Tune down 1/2 step (Eb,Ab,Db,Gb)

 212 bpm
|-------------|-------------|-------------|-------------|
|-------------|-------------|-------------|-------------|
|-----p-----p-|-----p----1--|-----p-----p-|-----p----3--|
|-2-25222-2322|-2-25222-2---|-2-25222-2322|-2-25222-2---|
  1  2  3  4   etc.

|-------------|-------------|-------------|-------------|
|-------------|-------------|-------------|-------------|
|-----p-----p-|-----p----1--|-----p-----p-|-----p----3--|
|-2-25222-2322|-2-25222-2---|-2-25222-2322|-2-25222-2---|

|-------------|-------------|-------------|-------------|
|-------------|-------------|-------------|-------------|
|-----p-----p-|-----p----1--|-----p-----p-|-----p----3--|
|-2-25222-2322|-2-25222-2---|-2-25222-2322|-2-25222-2---|

|-------------|-------------|-------------|-------------|
|-------------|-------------|-------------|-------------|
|-----p-----p-|-----p----1--|-----p-----p-|-----p----3--|
|-2-25222-2322|-2-25222-2---|-2-25222-2322|-2-25222-2---|

|-------------|-------------|-------------|-------------|
|-------------|-------------|-------------|-------------|
|-----p-----p-|-----p----1--|-----p-----p-|-----p----3--|
|-2-25222-2322|-2-25222-2---|-2-25222-2322|-2-25222-2---|

|-------------|-------------|-------------|-------------||
|-------------|-------------|-------------|-------------||
|-----p-----p-|-----p----1--|-----p-----p-|-----p----3--||
|-2-25222-2322|-2-25222-2---|-2-25222-2322|-2-25222-2---||

|-----------------|-----------------|-----------------|-----------------|
|-----------------|-----------------|-----------------|-----------------|
|-----------------|-------------1---|-----------------|-------------3---|
|-3\2-2-2-2-2-2-2-|-2-2-2-3\2-0-----|-3\2-2-2-2-2-2-2-|-2-2-2-3\2-0-----|
  1   2   3   4  etc.

|-----------------|-----------------|-----------------|-----------------|
|-----------------|-----------------|-----------------|-----------------|
|-----------------|-------------1---|-----------------|-------------3---|
|-3\2-2-2-2-2-2-2-|-2-2-2-3\2-0-----|-3\2-2-2-2-2-2-2-|-2-2-2-3\2-0-----|

|-----------------|-----------------|-----------------|-----------------||
|-----------------|-----------------|-----------------|-----------------||
|-----------------|-----------------|-----------------|-----------------||
|-2---------------|-----------------|-----------------|-----------------||

|-----------------|-----------------|-----------------|-----------------||
|-----------------|-----------------|-----------------|-----------------||
|--hh--hh-----2---|--hh--hh-----1---|--hh--hh-----2---|--hh--hh-----6---||
|-235-235-0-0-----|-235-235-0-0-----|-235-235-0-0-----|-235-235-0-0-----||
  {3} {3}           {3} {3}           {3} {3}           {3} {3}
  1   2   3   4  etc.

 verse 1
|-----------------|-----------------|-----------------|-----------------|
|-----------------|-----------------|-----------------|-----------------|
|--hh--hh-----2---|--hh--hh-----1---|--hh--hh-----2---|--hh--hh-----6---|
|-235-235-0-0-----|-235-235-0-0-----|-235-235-0-0-----|-235-235-0-0-----|
  {3} {3}           {3} {3}           {3} {3}           {3} {3}

|-----------------|-----------------|-----------------|-----------------|
|-----------------|-----------------|-----------------|-----------------|
|--hh--hh-----2---|--hh--hh-----1---|--hh--hh-----2---|--hh--hh-----6---|
|-235-235-0-0-----|-235-235-0-0-----|-235-235-0-0-----|-235-235-0-0-----|
  {3} {3}           {3} {3}           {3} {3}           {3} {3}

|-----------------|-----------------|-----------------|-----------------|
|-----------------|-----------------|-----------------|-----------------|
|--hh--hh-----2---|--hh--hh-----1---|--hh--hh-----2---|--hh--hh-----6---|
|-235-235-0-0-----|-235-235-0-0-----|-235-235-0-0-----|-235-235-0-0-----|
  {3} {3}           {3} {3}           {3} {3}           {3} {3}

|-----------------|-----------------|-----------------|-----------------||
|-----------------|-----------------|-----------------|-----------------||
|--hh--hh-----2---|--hh--hh-----1---|--hh--hh-----2---|--hh--hh-----6---||
|-235-235-0-0-----|-235-235-0-0-----|-235-235-0-0-----|-235-235-0-0-----||
  {3} {3}           {3} {3}           {3} {3}           {3} {3}

|-----------------|-----------------|-----------------|-----------------|
|-----------------|-----------------|-----------------|-----------------|
|-----------------|-------------1---|-----------------|-------------3---|
|-3\2-2-2-2-2-2-2-|-2-2-2-3\2-0-----|-3\2-2-2-2-2-2-2-|-2-2-2-3\2-0-----|

|-----------------|-----------------|-----------------|-----------------||
|-----------------|-----------------|-----------------|-----------------||
|-----------------|-------------1---|-----------------|-----------------||
|-3\2-2-2-2-2-2-2-|-2-2-2-3\2-0-----|-2---------------|-----------------||

|-----------------|-----------------|-----------------|-----------------|
|-------------5-4-|-----------------|-------------5-4-|-----------------|
|---------7-6-----|---------5-4-0-0-|---------7-6-----|-------7-9-8-7---|
|-0-0-0-0---------|-0-0-0-0---------|-0-0-0-0---------|-0-7-8-----------|

|-----------------|-----------------|-----------------|-----------------||
|-------------5-4-|-----------------|-------------5-4-|-----------------||
|---------7-6-----|---------5-4-0-0-|---------7-6-----|-------7-9-8-7---||
|-0-0-0-0---------|-0-0-0-0---------|-0-0-0-0---------|-0-7-8-----------||

 verse 2
|-----------------|-----------------|-----------------|-----------------|
|-----------------|-----------------|-----------------|-----------------|
|--hh--hh-----2---|--hh--hh-----1---|--hh--hh-----2---|--hh--hh-----6---|
|-235-235-0-0-----|-235-235-0-0-----|-235-235-0-0-----|-235-235-0-0-----|
  {3} {3}           {3} {3}           {3} {3}           {3} {3}

|-----------------|-----------------|-----------------|-----------------|
|-----------------|-----------------|-----------------|-----------------|
|--hh--hh-----2---|--hh--hh-----1---|--hh--hh-----2---|--hh--hh-----6---|
|-235-235-0-0-----|-235-235-0-0-----|-235-235-0-0-----|-235-235-0-0-----|
  {3} {3}           {3} {3}           {3} {3}           {3} {3}

|-----------------|-----------------|-----------------|-----------------|
|-----------------|-----------------|-----------------|-----------------|
|--hh--hh-----2---|--hh--hh-----1---|--hh--hh-----2---|--hh--hh-----6---|
|-235-235-0-0-----|-235-235-0-0-----|-235-235-0-0-----|-235-235-0-0-----|
  {3} {3}           {3} {3}           {3} {3}           {3} {3}

|-----------------|-----------------|-----------------|-----------------||
|-----------------|-----------------|-----------------|-----------------||
|--hh--hh-----2---|--hh--hh-----1---|--hh--hh-----2---|--hh--hh-----6---||
|-235-235-0-0-----|-235-235-0-0-----|-235-235-0-0-----|-235-235-0-0-----||
  {3} {3}           {3} {3}           {3} {3}           {3} {3}

|-----------------|-----------------|-----------------|-----------------|
|-----------------|-----------------|-----------------|-----------------|
|-----------------|-------------1---|-----------------|-------------3---|
|-3\2-2-2-2-2-2-2-|-2-2-2-3\2-0-----|-3\2-2-2-2-2-2-2-|-2-2-2-3\2-0-----|

|-----------------|-----------------|-----------------|-----------------||
|-----------------|-----------------|-----------------|-----------------||
|-----------------|-------------1---|-----------------|-----------------||
|-3\2-2-2-2-2-2-2-|-2-2-2-3\2-0-----|-2---------------|-----------------||

|-----------------|-----------------|-----------------|-----------------|
|-----------------|-2-------4-3-2---|-----------------|-2-------4-3-2---|
|---------4-3-2---|---3-1-2-------3-|---------4-3-2---|---3-1-2-------3-|
|-2-2-2-2-------3-|-----------------|-2-2-2-2-------3-|-----------------|

|-----------------|-----------------||
|-----------------|-2-------4-3-2---||
|---------4-3-2---|---3-1-2-------3-||
|-2-2-2-2-------3-|-----------------||

 bridge
|-----------------|-----------------|-----------------|-----------------|
|-----------------|-2-------4-3-2---|-----------------|-2-------4-3-2---|
|---------4-3-2---|---3-1-2-------3-|---------4-3-2---|---3-1-2-------3-|
|-2-2-2-2-------3-|-----------------|-2-2-2-2-------3-|-----------------|

|-----------------|-----------------|-----------------|-----------------||
|-----------------|-2-------4-3-2---|-----------------|-2-------4-3-2---||
|---------4-3-2---|---3-1-2-------3-|---------4-3-2---|---3-1-2-------3-||
|-2-2-2-2-------3-|-----------------|-2-2-2-2-------3-|-----------------||

|-----------------|-----------------|-----------------|-----------------||
|-----------------|-----------------|-----------------|-----------------||
|-3---------------|---------6-------|-5---------------|-5-------4-------||
|---------2-------|-3---------------|---------6-------|-----------------||

 guitar solo
|-----------------|-----------------|-----------------|-----------------|
|-----------------|-----------------|-----------------|-----------------|
|-----------------|-----------------|-----------------|-----------------|
|-0-0-4\3-0-0-3---|-0-0-4\3-0-0-4---|-0-0-4\3-0-0-3---|-0-0-4\3-0-0-3---|

|-----------------|-----------------|-----------------|-----------------|
|-----------------|-----------------|-----------------|-----------------|
|-----------------|-----------------|-----------------|-----------------|
|-0-0-4\3-0-0-3---|-0-0-4\3-0-0-4---|-0-0-4\3-0-0-3---|-0-0-4\3-0-0-6---|

|-----------------|-----------------|-----------------|-----------------|
|-----------------|-----------------|-----------------|-----------------|
|-----------------|-----------------|-----------------|-----------------|
|-0-0-4\3-0-0-3---|-0-0-4\3-0-0-4---|-0-0-4\3-0-0-3---|-0-0-4\3-0-0-3---|

|-----------------|-----------------|-----------------|-----------------|
|-----------------|-----------------|-----------------|-----------------|
|-----------------|-----------------|-----------------|-----------------|
|-0-0-4\3-0-0-3---|-0-0-4\3-0-0-4---|-0-0-4\3-0-0-3---|-0-0-4\3-0-0-6---|

|-----------------|-----------------|-----------------|-----------------|
|-----------------|-----------------|-----------------|-----------------|
|-----------------|-----------------|-----------------|-----------------|
|-0-0-4\3-0-0-3---|-0-0-4\3-0-0-4---|-0-0-4\3-0-0-3---|-0-0-4\3-0-0-4---|

|-----------------|-----------------|-----------------|-----------------||
|-----------------|-----------------|-----------------|-----------------||
|-----------------|-----------------|-----------------|-----------------||
|-0-------0-------|-0-------0-------|-0-------0-------|-0-------0-------||

|-----------------|-----------------|-----------------|-----------------||
|-----------------|-----------------|-----------------|-----------------||
|--hh--hh-----2---|--hh--hh-----1---|--hh--hh-----2---|--hh--hh-----6---||
|-235-235-0-0-----|-235-235-0-0-----|-235-235-0-0-----|-235-235-0-0-----||
  {3} {3}           {3} {3}           {3} {3}           {3} {3}

 verse 3
|-----------------|-----------------|-----------------|-----------------|
|-----------------|-----------------|-----------------|-----------------|
|--hh--hh-----2---|--hh--hh-----1---|--hh--hh-----2---|--hh--hh-----6---|
|-235-235-0-0-----|-235-235-0-0-----|-235-235-0-0-----|-235-235-0-0-----|
  {3} {3}           {3} {3}           {3} {3}           {3} {3}

|-----------------|-----------------|-----------------|-----------------|
|-----------------|-----------------|-----------------|-----------------|
|--hh--hh-----2---|--hh--hh-----1---|--hh--hh-----2---|--hh--hh-----6---|
|-235-235-0-0-----|-235-235-0-0-----|-235-235-0-0-----|-235-235-0-0-----|
  {3} {3}           {3} {3}           {3} {3}           {3} {3}

|-----------------|-----------------|-----------------|-----------------|
|-----------------|-----------------|-----------------|-----------------|
|--hh--hh-----2---|--hh--hh-----1---|--hh--hh-----2---|--hh--hh-----6---|
|-235-235-0-0-----|-235-235-0-0-----|-235-235-0-0-----|-235-235-0-0-----|
  {3} {3}           {3} {3}           {3} {3}           {3} {3}

|-----------------|-----------------|-----------------|-----------------||
|-----------------|-----------------|-----------------|-----------------||
|--hh--hh-----2---|--hh--hh-----1---|--hh--hh-----2---|--hh--hh-----6---||
|-235-235-0-0-----|-235-235-0-0-----|-235-235-0-0-----|-235-235-0-0-----||
  {3} {3}           {3} {3}           {3} {3}           {3} {3}

|-----------------|-----------------|-----------------|-----------------|
|-----------------|-----------------|-----------------|-----------------|
|-----------------|-------------1---|-----------------|-------------3---|
|-3\2-2-2-2-2-2-2-|-2-2-2-3\2-0-----|-3\2-2-2-2-2-2-2-|-2-2-2-3\2-0-----|

|-----------------|-----------------|-----------------|-----------------||
|-----------------|-----------------|-----------------|-----------------||
|-----------------|-------------1---|-----------------|-----------------||
|-3\2-2-2-2-2-2-2-|-2-2-2-3\2-0-----|-2---------------|-----------------||

|-----------------|-----------------|-----------------|-----------------|
|-------------5-4-|-----------------|-------------5-4-|-----------------|
|---------7-6-----|---------5-4-0-0-|---------7-6-----|-------7-9-8-7---|
|-0-0-0-0---------|-0-0-0-0---------|-0-0-0-0---------|-0-7-8-----------|

|-----------------|-----------------|-----------------|-----------------|
|-------------5-4-|-----------------|-------------5-4-|-----------------|
|---------7-6-----|---------5-4-0-0-|---------7-6-----|-------7-9-8-7---|
|-0-0-0-0---------|-0-0-0-0---------|-0-0-0-0---------|-0-7-8-----------|

|-----------------|-----------------|-----------------|-----------------|
|-------------5-4-|-----------------|-------------5-4-|-----------------|
|---------7-6-----|---------5-4-0-0-|---------7-6-----|-------7-9-8-7---|
|-0-0-0-0---------|-0-0-0-0---------|-0-0-0-0---------|-0-7-8-----------|

|-----------------|-----------------|-----------------|-----------------|
|-------------5-4-|-----------------|-------------5-4-|-----------------|
|---------7-6-----|---------5-4-0-0-|---------7-6-----|---------4-3-2---|
|-0-0-0-0---------|-0-0-0-0---------|-0-0-0-0---------|-2-2-2-2-------3-|

|-----------------||
|-----------------||
|-----------------||
|-0-0-------------||
            
Submit corrections

comments powered by Disqus
↑ Back to top | Slayer Bass for Captor Of Sin. Lyrics for acoustic guitar and electric guitar. 1 Tablatures and chords are parodies/interpretations of the original songs. You may use it for private study, scholarship, research or language learning purposes only