>
 >
Jesus Saves

Jesus Saves Guitar Tabs

Slayer - Jesus Saves chords, tabs, tablatures, lyrics

Guitar lessons | Add/correct | Request | Top 50 tabs Artists:  A B C D E F G H I J K L M N O P Q R S T U V W X Y Z 0-9

Jesus Saves Guitar Tabs – Slayer

CD, Sheet music, Poster

Do you like Jesus Saves? Share with your friends now
Bass TabsDrum TabsTabsTabs v2Tabs v3
Jesus Saves by Slayer

Tune to Eb
                      
E---------------------------|--------------------------------|----------------
Bb--------------------------|--------------------------------|----------------
Gb--------------------------|--------------------------------|----------------
Db--------1-----1--------1--|-----1--------4/3-1(tr2)--------|--------1-------
Ab--------1-----1--------1--|-----1--------2/1---------------|--------1-------
Eb--0--0-----0-----0--0-----|--0-----0--0--------------------|--0--0----------
PM  *  *     *     *  *        *     *  *                       *  *                                                                              
                 
E------------------|----------------------|--------------------------|------
Bb-----------------|----------------------|--------------------------|------
Gb-----------------|----------------------|--------------------------|------
Db-----1--------1--|-----4/3------4/3-----|--------1-----1--------1--|------
Ab-----1--------1--|-----2/1-4\6--2/1-----|--------1-----1--------1--|------
Eb--0-----0--0-----|--0------2\4----------|--0--0-----0-----0--0-----|------
PM  *     *  *        *                      *  *     *     *  *                                                                              
                  
E------------------------------|--------------------------|-------------------
Bb-----------------------------|--------------------------|-------------------
Gb-----------------------------|--------------------------|-------------------
Db-----1--------4/3--1(tr2)----|--------1-----1--------1--|--------4----------
Ab-----1--------2/1------------|--------1-----1--------1--|--------2----------
Eb--0-----0--0-----------------|--0--0-----0-----0--0-----|--0--0-------------
PM  *     *  *                    *  *     *     *  *        *  *                                                                              
                      riff a                                              
E---------------------||------------------------------------------------------
Bb--------------------||------------------------------------------------------
Gb--------------------||------------------------------------------------------
Db-----------3--------||------------------------------------------------------
Ab-----------1--------||------------------------------------------------------
Eb-----0--0-----------||--0-----0--0--0-----0--0--0--0--0--0--0-----0--0------
PM     *  *               *     *  *  *     *  *  *  *  *  *  *     *  *                                                                              
E-----------------------------------------------------------------------------
Bb----------------------------------------------------------------------------
Gb----------------------------------------------------------------------------
Db----------------------------------------------------------------------------
Ab----------------------------------------------------------------------------
Eb--0--0--0--0--0-----0--0--0--0--0--0--0-----0--0--0--0-----0--0-----0--0----
    *  *  *  *  *     *  *  *  *  *  *  *     *  *  *  *     *  *     *  *                                                                                                                         
E------------------||--------------------------|------------------------------
Bb-----------------||--------------------------|------------------------------
Gb-----------------||--------------------------|------------------------------
Db-----------------||--------------------------|-6--6--6--6--5-----5--5-------
Ab-----------------||--7--7--7--8--------8--8--|-4--4--4--4--3-----3--3-------
Eb--0--0--0--0--0--||--5--5--5--6--------6--6--|------------------------------
    *  *  *  *  *      *  *  *                   *  *  *  *                                                                                   
Eb-------------------------------|------------------------------------
Bb-------------------------------|------------------------------------
Gb-------------------------------|------------------------------------
Db-------------------------------|------------------------------------
Ab--------8--7-----8--7--11--10--|--------8--7-----8--7--11--10(tr11)-
Eb--0--0--------0----------------|--0--0--------0---------------------
    *  *        *                   *  *        *                                                                             
                 verses                                              
Eb---------------------------------------------------------------
Bb---------------------------------------------------------------
Gb---------------------------------------------------------------
Db---------------------------------------------------------------
Ab---------------------------------------------------------------
Eb--0--0--0--0--0--0--0--0--3--0--0--0--0--0--0--0--5--0--0------
    *  *  *  *  *  *  *  *  *  *  *  *  *  *  *  *  *  *  *                                                                                              chorus                          E---------------------------------------||------------------------------------
Bb--------------------------------------||------------------------------------
Gb--------------------------------------||------------------------------------
Db--------------------------------------||------------------------------------
Ab-----------------6-----9-----8--------||------------------------------------
Eb--0--0--0--0--0--4-----7-----6--------||--0--0--0--0--5--3--0--0--0--0------
    *  *  *  *  *  *                        *  *  *  *  *  *  *  *  *  *                                                                              
                                                            under solo 1    
E---------------------------------------------------------||------------------
Bb--------------------------------------------------------||------------------
Gb--------------------------------------------------------||------------------
Db--------------------------------------------------------||------------------
Ab--------------------------------------------7-----8-----||--6--6--6--6------
Eb--0--0--5--3--0--0--0--0--0--0--5--3--0--0--5-----6-----||--4--4--4--4------
    *  *  *  *  *  *  *  *  *  *  *  *  *  *                                                                                                           3x                                    
E---------------------------------------|-------------------------------------
Bb--------------------------------------|-------------------------------------
Gb--------------------------------------|-------------------------------------
Db--------------------------------------|--5--5--5--5--5--5--5--5-------------
Ab--6--6--6--6--6--6--6--6--7--7--7--7--|--3--3--3--3--3--3--3--3--9--9--9----
Eb--4--4--4--4--4--4--4--4--5--5--5--5--|--------------------------7--7--7----
                                                                              
                       under solo 2         (all pm)                          
E------------------||---------------------------------------------------------
Bb-----------------||---------------------------------------------------------
Gb-----------------||---------------------------------------------------------
Db-----------------||---------------------------------------------------------
Ab--9--9--9--9--9--||---------------------------------------------------------
Eb--7--7--7--7--7--||--0--0--0--0--0--0--0--0--3--3--3--3--3--3--3--3--2------
                                                                              
                                                                              
E-----------------------------------------------------------------------------
Bb----------------------------------------------------------------------------
Gb----------------------------------------------------------------------------
Db----------------------------------------------------------------------------
Ab----------------------------------------------------------------------------
Eb--2--2--2--2--2--2--6--6--6--6--6--6--6--6--0--0--0--0--0--0--0--0--3--3----
                                                                              
                                                                              
E---------------------------------------------------------------------||------
Bb--------------------------------------------------------------------||------
Gb--------------------------------------------------------------------||------
Db--------------------------------------------------------------------||------
Ab--------------------------------------------------------------------||------
Eb--3--3--3--3--3--3--2--2--2--2--2--2--2--2--8--8--8--8--8--8--8--8--||------
                                                                              
    lead break                                       under solo 3             
E------------------------------------------------||---------------------------
Bb-----------------------------------------------||---------------------------
Gb-----------------------------------------------||---------------------------
Db-----------------------------------------------||---------------------------
Ab--7-----------8--7-----------8--7-----------8--||--8--7--7--7--7--7--7------
Eb--5-----------6--5-----------6--5-----------6--||--6--5--5--5--5--5--5------
                                                                              
                      3x                                                      
E------------------------------|----------------------------------------------
Bb-----------------------------|----------------------------------------------
Gb-----------------------------|----------------------------------------------
Db-----------------------------|----------------------------------------------
Ab--7--7--7--7--7--7--7--7--7--|--8--8--8--8--8--8--8--8--8--8--8--8--8--8----
Eb--5--5--5--5--5--5--5--5--5--|--6--6--6--6--6--6--6--6--6--6--6--6--6--6----
                                                                              
              end                                                             
E---------||-----------||-----------------------------------------------------
Bb--------||-----------||-----------------------------------------------------
Gb--------||-----------||-----------------------------------------------------
Db--------||-----------||-----------------------------------------------------
Ab--8--8--||--8--------||-----------------------------------------------------
Eb--6--6--||--6--------||-----------------------------------------------------





Comments


Popular Slayer tabs & chords
Hate Worldwide Bass Tabs
Here Comes The Pain Bass Tabs
Violent Pacification 1 Bass Tabs
Wicked Bass Tabs
Postmortem Drum Tabs
Black Magic 1 Tabs
Dead Skin Mask 2 Tabs
Death's Head 2 Tabs
Raining Blood 2 Tabs
Raining Blood 3 Tabs


Song lyrics



↑ Back to top | Tablatures and chords are parodies/interpretations of the original songs. You may use it for private study, scholarship, research or language learning purposes only
© 2014 AZChords.com Contact us | Privacy policy | DMCA | Add/correct tabs | Request tabs | Top 50 tabs