» » »

Captor Of Sin Tabs (ver.1)

Artists:  A B C D E F G H I J K L M N O P Q R S T U V W X Y Z # 

Captor Of Sin Tabs (ver.1)

Slayer
Rating:
0/5 (0 votes)

Hard to play? Try these video lessons and learn fast.
                slayer




solo 1      pick slide  t       t     t     t      t     t     t    t     
t      t     t
eb:14h17p14|-----------|22p21-|------------------------------------------------------------|
Bb:--------|-x\-/\/\/--|repeat|------------------------------------------------------------|
Gb:repeat--|-x\-/\/\/--|------|-22p20-22p20-21p19-20p18-19p17-18p16-17p15-16p14-15p13-14p12|
Db:--------|-----------|------|------------------------------------------------------------|
Ab:--------|-----------|------|------------------------------------------------------------|
Eb:--------|-----------|------|------------------------------------------------------------|



:----2h3p2-3-5-2h3-----------------------------------------------------------------------|
:-5/---------------5-2h3p2---------------------------------------------------------------|
:--------------------------5p3-2-3b-3b-3NHb-3-3-----------------------------------7-8-10-|
:---------------------------------------------------------------------------6-7-9--------|
:--------------------------------------------------------------6-7-9--6-7-9--------------|
:------------------------------------------------8-9-11-8-9-11---------------------------|
                        note: i don´t know how to explain this part but 
if you see in the
                              video live intrusion, you will see 
hanneman do with his 2 hand
                              this technique, with the right hand he do 
the slides and his 
                              left hand do the hammer and pull.
                              if you dont understand this please see the 
video. 

                         left hand slowly
:-----------------------|-----------------------------------------------------------|
:--12-------------------|-----------------------------------------------------------|
:9----9b~~~-7h9p7--7~~~-|13p0h13p0h13p0h13p0h13p0h13p0h13p0h13p0h13p0h13p0h13p0h13p0|
:-----------------------|-----------------------------------------------------------|
:-----------------------|-----------------------------------------------------------|
:-----------------------|-----------------------------------------------------------|
                        |
                        |do slowly
                        |right hand
                        
|:--------------------------------------------------------|
                        
|:--------------------------------------------------------|
                        
|:12\11\10\9\8\7\6\5\4\3\2\1\0/1/2/3/4/5/6/7/8/9/10/11/12-|
                        
|:--------------------------------------------------------|
                        
|:--------------------------------------------------------|
                        
|:--------------------------------------------------------|


eb:-------------------------------------------------------------12-14-15---------------|
Bb:----------------------------------------------------12-13-15----------15-13-12-13-12|
Gb:1/-------------------------------------------12-14b---------------------------------|
Db:----7/---------------------------12-14-12-14----------------------------------------|
Ab:---------------------12-14-12-14----------------------------------------------------|
Eb:---------12-15-12-15----------------------------------------------------------------|


eb:------------------------------------------------------------------------------------------|
Bb:------------------------------------------------------------------------------------------|
Gb:14-12-14b---------------------------------------------------------------------------------|
Db:------------------7-8-10--------8-9-11---------9-10-12----------10-11-13----------11-12-14|
Ab:-----------7-8-10--------8-9-11--------9-10-12---------10-11-13----------11-12-14---------|
Eb:------------------------------------------------------------------------------------------|



eb:--------------------------------------------------|
Bb:--------------------------------------------------|
Gb:--------------------------------------17b~~~~~----|
Db:---------12-13-15----------13-14-16---------------|
Ab:12-13-15----------13-14-16------------------------|
Eb:--------------------------------------------------|




captor of sin

slayer





solo 2
   
bar/\/\/\/\/\/\/\/\/\/\/\/\/\/\/\/\/\/\/\/\/\/\/\/\/\/\bar/\/\/\/\/\/\
eb:----------------------------------------------------------------------|
Bb:----------------------------------------------------------------------|
Gb:0h2p0h2p0h2p0h2p0etc..--4b~~~~--0h2p0h2p0h2p0h2p0etc..--0---(0)-------|
Db:----------------------------------------------------------------------|
Ab:----------------------------------------------------------------------|
Eb:----------------------------------------------------------------------|



eb:21-18-20-21-18-21-18-20-21-18-21-18-20-21-19-22-23-19-22-24-19-22-24--24b--24b|
Bb:------------------------------------------------------------------------------|
Gb:------------------------------------------------------------------------------|
Db:------------------------------------------------------------------------------|
Ab:------------------------------------------------------------------------------|
Eb:------------------------------------------------------------------------------|

   |--------------------
   |    t  t  t  t          t   t    t    t      t      t      t      t     
t     t    t      bar
eb:--------------------------------------------------------------------------------------------|
Bb:--------------------------------------------------------------------------------------------|
Gb:5b--13-13-13-13etc...---13p6-13p6-11p6-12-7p5-12-7p5-11-6p4-10-6p4-9-5p3-8-4p2-7-3p1-6-3p1p0|
Db:--------------------------------------------------------------------------------------------|
Ab:--------------------------------------------------------------------------------------------|
Eb:--------------------------------------------------------------------------------------------|

                                                                                 
2 times
eb:-----------------------------------------------------------------------------|----------|
Bb:-----------------------------------------------------------------------------|----------|
Gb:------------------------------------------------------------------15p12h14h15|-11h12h14-|
Db:-----------------------------------------------------------------------------|----------|
Ab:-----------------------------------------------------------------------------|----------|
Eb:15\-2h4p2h4p2h4p2etc...-3h5p3h5p3h5p3-5h7p5h7p5h7p5h7h9p7h9p7h9p7------------|----------|


   2 times  2 times 
eb:--------|-------|---------------------------------------------------------------|
Bb:--------|-------|---------------------------------------------------------------|
Gb:10h11h13|9h10h12|8h9h11-7h8h10-6h7h9-5h6h8-4h5h7-3h4h6-2h3h5p3p2----------------|
Db:--------|-------|---------------------------------------------------------------|
Ab:--------|-------|--------------------------------------------------2-2-2-2-2-2-2|
Eb:--------|-------|--------------------------------------------------0-0-0-0-0-0-0|


   bar /\/\/\/\/\/\/\/\/\                                        bar
eb:----------------------------12h15p12h14p12h15p12h14p12--21b-----------|
Bb:----------------------------------------------------------------------|
Gb:-0--3p0h3p0h3p0h3p0h3p0-3/--------------------------------------------|
Db:----------------------------------------------------------------------|
Ab:----------------------------------------------------------------------|
Eb:---------------------------------------------------------------0------|
            
Hard to play? Try these video lessons and learn fast. | Correct




comments powered by Disqus
↑ Back to top | Tablatures and chords are parodies/interpretations of the original songs. You may use it for private study, scholarship, research or language learning purposes only