>
 >
Captor Of Sin 1

Captor Of Sin 1 Guitar Tabs

Slayer - Captor Of Sin 1 chords, tabs, tablatures, lyrics

Guitar lessons | Add/correct | Request | Top 50 tabs Artists:  A B C D E F G H I J K L M N O P Q R S T U V W X Y Z 0-9

Captor Of Sin 1 Guitar Tabs – Slayer

CD, Sheet music, Poster

Do you like Captor Of Sin 1? Share with your friends now
Bass TabsTabsTabs v2

CAPTOR OF SIN
As recorded by Slayer
(From the 1984 Album HAUNTING THE CHAPEL)

        

Words and Music by Hannemann, King
Arranged by Slayer

Gtr I (Eb Ab Db Gb Bb Eb) - 'Jeff Hannemann'
Gtr II (Eb Ab Db Gb Bb Eb) - 'Kerry King'

 Guitar Solo 1
  Q=212
             N.C.
 4/4
  Gtr I
                 T         T     T         T     T         T  T            T
  W           S  S    S    S  S  S    S    S  S  S    S    S  S  S    S    S
|----------|-14h17p==14h==17p14h17p==14h==17p14h17p==14h==17p14h17p==14h==17--|
|----------|------------------------------------------------------------------|
|----------|------------------------------------------------------------------|
|----------|------------------------------------------------------------------|
|----------|------------------------------------------------------------------|
|----------|------------------------------------------------------------------|
|
| Gtr II
|             PM--------------------------------------------------------|
|             |----3----|     |----3----|     |----3----|     |----3----|
| W           E    E    E     E    E    E     E    E    E     E    E    E
|----------|------------------------------------------------------------------|
|----------|------------------------------------------------------------------|
|----------|------------------------------------------------------------------|
|----------|------------------------------------------------------------------|
|----------|------------------------------------------------------------------|
|----------|--2----2----2-----5----2----2-----2----2----2-----3----2----2-----|


                                    Bb5
      T         T
   S  S    S    S  E.    E.     E.     E.
|-14h17p==14h==17-22s====0s====12s====24--|
|-----------------22s====0s====12s====24--|
|-----------------------------------------|
|-----------------------------------------|
|-----------------------------------------|
|-----------------------------------------|
|
|  PM-----------------------------|
|  |----3----|     |-3-|   |--3---|
|  E    E    E     E E E   E E    E Q
|-----------------------------------------|
|-----------------------------------------|
|-----------------------------------3-----|
|-----------------------------------3-----|
|-----------------------------------1-----|
|--2----2----2-----5-2-2---2-2----2-------|


   T       T       T       T       T       T       T       T
   S  S    S    S  S  S    S    S  S  S    S    S  S  S    S    S
|-22p21---22p==21-22p21---22p==21---------------------------------|
|-----------------------------------------------------------------|
|---------------------------------22p20---22p==20-21p19---21p==19-|
|-----------------------------------------------------------------|
|-----------------------------------------------------------------|
|-----------------------------------------------------------------|
|
|  PM--------------------------------------------------------|
|  |----3----|     |----3----|     |----3----|     |----3----|
|  E    E    E     E    E    E     E    E    E     E    E    E
|-----------------------------------------------------------------|
|-----------------------------------------------------------------|
|-----------------------------------------------------------------|
|-----------------------------------------------------------------|
|-----------------------------------------------------------------|
|--2----2----2-----5----2----2-----2----2----2-----3----2----2----|


                                                  C5
   T       T       T       T       T       T       T  T
   S  S    S    S  S  S    S    S  S  S    S    S  S  S  S  S
|-------------------------------------------------------------|
|-------------------------------------------------------------|
|-20p18---19p==17-18p16---17p==15-16p14---15p==13-14p12-13p11-|
|-------------------------------------------------------------|
|-------------------------------------------------------------|
|-------------------------------------------------------------|
|
|  PM----------------------------------------|
|  |----3----|     |----3----|     |----3----|
|  E    E    E     E    E    E     E    E    E     Q
|-------------------------------------------------------------|
|-------------------------------------------------------------|
|--------------------------------------------------5----------|
|--------------------------------------------------5----------|
|--------------------------------------------------3----------|
|--2----2----2-----5----2----2-----2----2----2----------------|


  E   S   S E   E   E   S   S E   E
|-----2h==3p2---3---5---2h==3---------|
|-5---------------------------5---2h==|
|-------------------------------------|
|-------------------------------------|
|-------------------------------------|
|-------------------------------------|
|
| PM--------------------------------|
| |--3--|   |--3--| |--3--|   |--3--|
| E E   E   E E   E E E   E   E E   E
|-------------------------------------|
|-------------------------------------|
|-------------------------------------|
|-------------------------------------|
|-------------------------------------|
|-2-2---2---5-2---2-2-2---2---3-2---2-|


                            Bb5
  E   E   E   E   E   Q.         +Q.         H               +E
|------------------------------|-----------------------------------|
|-3p==2------------------------|-----------------------------------|
|---------5p==3---2---3b5------|-(3)---------3b5-------------(3)---|
|------------------------------|-----------------------------------|
|------------------------------|-----------------------------------|
|------------------------------|-----------------------------------|
|
| PM----------------------|       PM-----------------------------|
| |--3--| |--3--| |---3---|       |-3--| |---3---| |-3-| |---3---|
| E E   E E E   E E E     E Q     E  E E E E     E E E E E E     E
|------------------------------|-----------------------------------|
|------------------------------|-----------------------------------|
|---------------------------3--|-----------------------------------|
|---------------------------3--|-----------------------------------|
|---------------------------1--|-----------------------------------|
|-2-2---2-5-2---2-2-2-----2----|--2--2-2-5-2-----2-2-2-2-3-2-----2-|


                        C5
                             |-3--| |-3--| |-3-| |-3-|
   H              Q     Q    E E  E E E  E E E E E E E
|--------------------------|---------------------------|
|--------------------------|---------------------------|
|-[3]b5-----------3-----3--|---------------------------|
|--------------------------|---------------------------|
|--------------------------|---------------6-7-9-6-7-9-|
|--------------------------|-8-9-11-8-9-11-------------|
|
|  PM-----------------|      PM----------------------|
|  |--3---| |-3-| |-3-|      |-3--| |-3--| |-3-| |-3-|
|  E    E E E E E E E E Q    E E  E E E  E E E E E E E
|--------------------------|---------------------------|
|--------------------------|---------------------------|
|-----------------------5--|---------------------------|
|-----------------------5--|---------------------------|
|-----------------------3--|---------------------------|
|--2----2-2-5-2-2-2-2-2----|-2-2--2-5-2--2-2-2-2-3-2-2-|


                      Bb5
                      ~~~~
  |-3-| |-3--| |3-|
  E E E E E  E E  Q   Q       +H            S S   S   S +Q
|---------------------------|-----------------------------------|
|----------------12---------|-----------------------------------|
|-------7-8-10-9------9b11--|-(9)-----------7-9---7---7-(7)-----|
|-6-7-9---------------------|-----------------------------------|
|---------------------------|-----------------------------------|
|---------------------------|-----------------------------------|
|
| PM----------------|          PM-----------------------------|
| |-3-| |-3--| |-3--|          |-3--| |-3-| |---3---|    |-3--|
| E E E E E  E E  E E Q        E  E E E E E E   E   E    E  E E
|---------------------------|-----------------------------------|
|---------------------------|-----------------------------------|
|---------------------3-----|-----------------------------------|
|---------------------3-----|-----------------------------------|
|---------------------1-----|-----------------------------------|
|-2-2-2-5-2--2-2--2-2-------|--2--2-2-5-2-2-2---2---2----3--2-2-|


                    C5
  |-3-| |-3-| |-3-|  |-3-|
  E E E E E E E E E  E E E
|--------------------------|
|--------------------------|
|-5-4-2-7-5-4-9-7-5-11-9-7-|
|--------------------------|
|--------------------------|
|--------------------------|
|
| PM--------------|
| |-3-| |-3-| |-3-|
| E E E E E E E E E  Q
|--------------------------|
|--------------------------|
|--------------------5-----|
|--------------------5-----|
|--------------------3-----|
|-2-2-2-5-2-2-2-2-2--------|


   T      T      T      T      T      T      T      T
   S S    S   S  S S    S   S  S S    S   S  S S    S   S
|-----------------------------------------------------------|
|-----------------------------------------------------------|
|-13p0---13p==0-13p0---13p==0-13p0---13p==0-13p0---13p==0---|
|-----------------------------------------------------------|
|-----------------------------------------------------------|
|-----------------------------------------------------------|
|
|  PM-------------------------------------------------|
|  |---3----|    |---3----|    |---3----|    |---3----|
|  E   E    E    E   E    E    E   E    E    E   E    E
|-----------------------------------------------------------|
|-----------------------------------------------------------|
|-----------------------------------------------------------|
|-----------------------------------------------------------|
|-----------------------------------------------------------|
|--2---2----2----5---2----2----2---2----2----3---2----2-----|


                                              Bb5
   T      T      T      T      T       T       T     T
   S S    S   S  S S    S   S  S  S    S    S  S  S  S S
|--------------------------------------------------------|
|--------------------------------------------------------|
|-13p0---13p==0-13p0---13p==0-13p12---13p==11-13p10-13p9-|
|--------------------------------------------------------|
|--------------------------------------------------------|
|--------------------------------------------------------|
|
|  PM------------------------------------|
|  |---3----|    |---3----|    |----3----|
|  E   E    E    E   E    E    E    E    E     Q
|--------------------------------------------------------|
|--------------------------------------------------------|
|----------------------------------------------3---------|
|----------------------------------------------3---------|
|----------------------------------------------1---------|
|--2---2----2----5---2----2----2----2----2---------------|


   T      T      T      T      T      T      T      T
   S S    S   S  S S    S   S  S S    S   S  S S    S   S
|---------------------------------------------------------|
|---------------------------------------------------------|
|-13p8---13p==7-13p6---13p==5-13p4---13p==3-13p2---13p==1-|
|---------------------------------------------------------|
|---------------------------------------------------------|
|---------------------------------------------------------|
|
|  PM-------------------------------------------------|
|  |---3----|    |---3----|    |---3----|    |---3----|
|  E   E    E    E   E    E    E   E    E    E   E    E
|---------------------------------------------------------|
|---------------------------------------------------------|
|---------------------------------------------------------|
|---------------------------------------------------------|
|---------------------------------------------------------|
|--2---2----2----5---2----2----2---2----2----3---2----2---|


                                            C5
   T      T      T      T      T      T      T    T
   S S    S   S  S S    S   S  S S    S   S  S S  S S
|-----------------------------------------------------|
|-----------------------------------------------------|
|-13p0---13p==1-13p2---13p==3-13p4---13p==5-13p6-13p7-|
|-----------------------------------------------------|
|-----------------------------------------------------|
|-----------------------------------------------------|
|
|  PM-----------------------------------|
|  |---3----|    |---3----|    |---3----|
|  E   E    E    E   E    E    E   E    E    Q
|-----------------------------------------------------|
|-----------------------------------------------------|
|--------------------------------------------5--------|
|--------------------------------------------5--------|
|--------------------------------------------3--------|
|--2---2----2----5---2----2----2---2----2-------------|


   T      T      T       T       T
   S S    S   S  S  S    S    S  S  S   E.    E.
|----------------------------------------------------|
|----------------------------------------------------|
|-13p8---13p==9-13p10---13p==11-13p12---1S====7\-----|
|----------------------------------------------------|
|----------------------------------------------------|
|----------------------------------------------------|
|
|  PM----------------------------------------------|
|  |---3----|    |----3----|     |---3----| |--3---|
|  E   E    E    E    E    E     E    E   E E    E E
|----------------------------------------------------|
|----------------------------------------------------|
|----------------------------------------------------|
|----------------------------------------------------|
|----------------------------------------------------|
|--2---2----2----5----2----2-----2----2---2-3----2-2-|


                             Bb5
   |--3--|  |--3--|  |--3--|  |--3--|
   E  E  E  E  E  E  E  E  E  E  E  E
|-------------------------------------|
|-------------------------------------|
|-------------------------------------|
|-------------------------12-14-12-14-|
|-------------12-14-12-14-------------|
|-12-15-12-15-------------------------|
|
|  PM---------------------|
|  |--3--|  |--3--|  |--3--|
|  E  E  E  E  E  E  E  E  E  Q
|-------------------------------------|
|-------------------------------------|
|-----------------------------3-------|
|-----------------------------3-------|
|-----------------------------1-------|
|--2--2--2--5--2--2--2--2--2----------|


   |----3----|   |--3--|  |--3--|  |--3--|
   E  E     +E   E  E  E  E  E  E  E  E  E
|------------------------12-14-15----------|
|---------------12-13-15----------15-13-12-|
|-12-14b16-(14)----------------------------|
|------------------------------------------|
|------------------------------------------|
|------------------------------------------|
|
|  PM-----------------------------------|
|  |----3----|   |--3--|  |--3--|  |--3--|
|  E  E      E   E  E  E  E  E  E  E  E  E
|------------------------------------------|
|------------------------------------------|
|------------------------------------------|
|------------------------------------------|
|------------------------------------------|
|--2--2------2---5--2--2--2--2--2--3--2--2-|


                                  C5
   |--3--|  |3-|                          |-3--| |-3--| |-3--| |-3--|
   E  E  E  E  Q       +Q          +Q     E E  E E E  E E E  E E E  E
|---------------------------------------|-----------------------------|
|-13-12---------------------------------|-----------------------------|
|-------14-12-14b20r==(14)b20-----(14)--|-----------------------------|
|---------------------------------------|--------7-8-10--------8-9-11-|
|---------------------------------------|-7-8-10--------8-9-11--------|
|---------------------------------------|-----------------------------|
|
|  PM---------------------------|         PM-----------------------|
|  |--3--|  |---3---|   |---3---|         |-3--| |-3--| |-3--| |-3--|
|  E  E  E  E  E    E   E     E E   Q     E E  E E E  E E E  E E E  E
|---------------------------------------|-----------------------------|
|---------------------------------------|-----------------------------|
|-----------------------------------5---|-----------------------------|
|-----------------------------------5---|-----------------------------|
|-----------------------------------3---|-----------------------------|
|--2--2--2--5--2----2---2-----2-2-------|-2-2--2-5-2--2-2-2--2-3-2--2-|


                           Bb5
  |--3--| |--3--|  |--3--|  |--3--|    |--3--|  |--3--|  |--3--|  |--3--|
  E  E  E E  E  E  E  E  E  E  E  E    E  E  E  E  E  E  E  E  E  E  E  E
|-----------------------------------|-------------------------------------|
|-----------------------------------|-------------------------------------|
|-----------------------------------|-------------------------------------|
|---------9-10-12----------10-11-13-|----------11-12-14----------12-13-15-|
|-9-10-12---------10-11-13----------|-11-12-14----------12-13-15----------|
|-----------------------------------|-------------------------------------|
|
| PM--------------------|              PM----------------------------------
| |--3--| |--3--|  |--3--|             |--3--|  |--3--|  |--3--|  |--3--|
| E  E  E E  E  E  E  E  E  Q          E  E  E  E  E  E  E  E  E  E  E  E
|-----------------------------------|-------------------------------------|
|-----------------------------------|-------------------------------------|
|---------------------------3-------|-------------------------------------|
|---------------------------3-------|-------------------------------------|
|---------------------------1-------|-------------------------------------|
|-2--2--2-5--2--2--2--2--2----------|--2--2--2--5--2--2--2--2--2--3--2--2-|


                                C5
   |--3--|  |--3--|
   E  E  E  E  E  E   H
|------------------------------------||
|------------------------------------||
|------------------------------------||
|----------13-14-16-[17]b19----------||
|-13-14-16---------------------------||
|------------------------------------||
|
|-----------------------------|
|  |--3--|  |--3--|   |---3---|
|  E  E  E  E  E  E   E     E E Q
|------------------------------------||
|------------------------------------||
|-------------------------------5----||
|-------------------------------5----||
|-------------------------------3----||
|--2--2--2--5--2--2---2-----2-2------||


 Intro
  G5     F#5                                       Bb5
    +H.              +Q             +W
|-------------------------------|---------------------|
|-------------------------------|---------------------|
|-------------------------------|---------------------|
|-([17])-----------([17])pb23r==|=([17])--------------|
|-------------------------------|---------------------|
|-------------------------------|---------------------|
|
|          PM------------------------------------|
|    E   E E E E E    E       E      E   E E E E E Q
|-------------------------------|---------------------|
|-------------------------------|---------------------|
|-------------------------------|------------------3--|
|----5---4----------------------|------------------3--|
|----5---4----------------------|------------------1--|
|----3---2-2-2-2-2----2-------2-|----2---2-2-3-0-0----|


  G5F#5                         C5
      PM----------------------|
  E E E E E E E E   E E E E E E Q
|-----------------|----------------|
|-----------------|----------------|
|-----------------|-------------5--|
|-5S4-------------|-------------5--|
|-5S4-------------|-------------3--|
|-3S2-2-2-2-2-2-2-|-2-2-2-3-0-0----|
|
|     PM----------------------|
| E E E E E E E E   E E E E E E Q
|-----------------|----------------|
|-----------------|----------------|
|-----------------|-------------5--|
|-5S4-------------|-------------5--|
|-5S4-------------|-------------3--|
|-3S2-2-2-2-2-2-2-|-2-2-2-3-0-0----|


  G5F#5                         Bb5  G5F#5                         C5
  Gtrs I, II
      PM----------------------|          PM----------------------|
  E E E E E E E E   E E E E E E Q    E E E E E E E E   E E E E E E Q
|-----------------|----------------|-----------------|----------------|
|-----------------|----------------|-----------------|----------------|
|-----------------|-------------3--|-----------------|-------------5--|
|-5-4-------------|-------------3--|-5S4-------------|-------------5--|
|-5-4-------------|-------------1--|-5S4-------------|-------------3--|
|-3-2-2-2-2-2-2-2-|-2-2-2-3-0-0----|-3S2-2-2-2-2-2-2-|-2-2-2-3-0-0----|


  F#5               B5                   Bb5
  Gtr I
  E   E   Q     H        W
|----------------------|--------------------|
|----------------------|--------------------|
|----------------------|--------------------|
|-4--------------------|--------------------|
|-4--------------------|--------------------|
|-2--------------------|--------------------|
|
| Gtr II
|               PM|                  PM|
| |--3--| |-3-|          |-3-| |-3-|
| E E   E E E E E E Q    E E E E E E E E Q
|----------------------|--------------------|
|----------------------|--------------------|
|-------------------4--|-----------------3--|
|-------------------4--|-----------------3--|
|-------------------2--|-----------------1--|
|-2h3h==5-2h3h5-0-0----|-2h3h5-2h3h5-0-0----|


                  B5                   Eb5
  W                    W
|--------------------|--------------------|
|--------------------|--------------------|
|--------------------|--------------------|
|--------------------|--------------------|
|--------------------|--------------------|
|--------------------|--------------------|
|
|             PM|                  PM|
| |-3-| |-3-|          |-3-| |-3-|
| E E E E E E E E Q    E E E E E E E E Q
|--------------------|--------------------|
|--------------------|--------------------|
|-----------------4--|-----------------8--|
|-----------------4--|-----------------8--|
|-----------------2--|-----------------6--|
|-2h3h5-2h3h5-0-0----|-2h3h5-2h3h5-0-0----|


                  B5                   Bb5
  Gtrs I, II
              PM|                  PM|
  |-3-| |-3-|          |-3-| |-3-|
  E E E E E E E E Q    E E E E E E E E Q
|--------------------|--------------------|
|--------------------|--------------------|
|-----------------4--|-----------------3--|
|-----------------4--|-----------------3--|
|-----------------2--|-----------------1--|
|-2h3h5-2h3h5-0-0----|-2h3h5-2h3h5-0-0----|


                  B5                   Eb5
              PM|                  PM|
  |-3-| |-3-|          |-3-| |-3-|
  E E E E E E E E Q    E E E E E E E E Q
|--------------------|---------------------||
|--------------------|---------------------||
|-----------------4--|-----------------8---||
|-----------------4--|-----------------8---||
|-----------------2--|-----------------6---||
|-2h3h5-2h3h5-0-0----|-2h3h5-2h3h5-0-0-----||


   Verse
    $
    $$
                    B5                   Bb5
                PM|                  PM|
    |-3-| |-3-|          |-3-| |-3-|
    E E E E E E E E Q    E E E E E E E E Q
||---------------------|--------------------|
||o--------------------|--------------------|
||------------------4--|-----------------3--|
||------------------4--|-----------------3--|
||o-----------------2--|-----------------1--|
||--2h3h5-2h3h5-0-0----|-2h3h5-2h3h5-0-0----|


                  B5                   Eb5
              PM|                  PM|
  |-3-| |-3-|          |-3-| |-3-|
  E E E E E E E E Q    E E E E E E E E Q   4x
|--------------------|---------------------||
|--------------------|--------------------o||
|-----------------4--|-----------------8---||
|-----------------4--|-----------------8---||
|-----------------2--|-----------------6--o||
|-2h3h5-2h3h5-0-0----|-2h3h5-2h3h5-0-0-----||


 Pre-Chorus
  G5F#5                         Bb5  G5F#5                         C5
      PM----------------------|          PM----------------------|
  E E E E E E E E   E E E E E E Q    E E E E E E E E   E E E E E E Q
|-----------------|----------------|-----------------|----------------|
|-----------------|----------------|-----------------|----------------|
|-----------------|-------------3--|-----------------|-------------5--|
|-5S4-------------|-------------3--|-5S4-------------|-------------5--|
|-5S4-------------|-------------1--|-5S4-------------|-------------3--|
|-3S2-2-2-2-2-2-2-|-2-2-2-3-0-0----|-3S2-2-2-2-2-2-2-|-2-2-2-3-0-0----|


                                                              To Coda
  G5F#5                         Bb5  N.C.
      PM----------------------|
  E E E E E E E E   E E E E E E Q    E E E E E E E E   E E E E E E E E
|-----------------|----------------|-----------------|-----------------||
|-----------------|----------------|-----------------|-----------------||
|-----------------|-------------3--|-----------------|-----------------||
|-5S4-------------|-------------3--|-----------------|-2-------4-3-2---||
|-5S4-------------|-------------1--|-2-------4-3-2---|---3-2-1-------3-||
|-3S2-2-2-2-2-2-2-|-2-2-2-3-0-0----|---3-2-1-------3-|-----------------||


   Chorus
            E5EbG5 F#5          C#C5G#G5
    PM----|             PM----|
    E E E E E E  E  E   E E E E E E E E
||--------------------|-----------------|
||o-------------------|-----------------|
||----------9S8-12S11-|---------6S5-----|
||----------9S8-12S11-|---------6S5-6S5-|
||o---------7S6-10S=9-|---------4S3-6S5-|
||--0-0-0-0-----------|-0-0-0-0-----4S3-|


                        D.S. al Coda
                        D.S. al Coda
          E5EbG5 F#5  N.C.
  PM----|
  E E E E E E  E  E   E E E E E E Q
|-------------------|------------------||
|-------------------|-----------------o||
|---------9S8-12S11-|------------------||
|---------9S8-12S11-|---------9-8-7----||
|---------7S6-10S=9-|-7-----7---------o||
|-0-0-0-0-----------|---8-7------------||


   Chorus 2
    &
    N.C.
    E E E E E E E E   E E E E E E E E   E E E E E E E E   E E E E E E E E
||------------------|-----------------|-----------------|-------------------||
||o-----------------|-----------------|-----------------|------------------o||
||------------------|-----------------|-----------------|-------------------||
||------------------|-2-------4-3-2---|-----------------|-2-------4-3-2-----||
||o-2-------4-3-2---|---3-2-1-------3-|-2-------4-3-2---|---3-2-1-------3--o||
||----3-2-1-------3-|-----------------|---3-2-1-------3-|-------------------||


 Bridge
  E E E E E E E E   E E E E E E E E   E E E E E E E E   E E E E E E E E
|-----------------|-----------------|-----------------|-----------------|
|-----------------|-----------------|-----------------|-----------------|
|-----------------|-----------------|-----------------|-----------------|
|-----------------|-2-------4-3-2---|-----------------|-2-------4-3-2---|
|-2-------4-3-2---|---3-2-1-------3-|-2-------4-3-2---|---3-2-1-------3-|
|---3-2-1-------3-|-----------------|---3-2-1-------3-|-----------------|


                                      C5   F#5    G5   Eb5
  E E E E E E E E   E E E E E E E E   H    H      H    H
|-----------------|-----------------|-----------|-----------|
|-----------------|-----------------|-----------|-----------|
|-----------------|-----------------|-5---------|------8----|
|-----------------|-2-------4-3-2---|-5----4----|-5----8----|
|-2-------4-3-2---|---3-2-1-------3-|-3----4----|-5----6----|
|---3-2-1-------3-|-----------------|------2----|-3---------|


  D5   Bb5    G5    F#5
  Gtr I
  H    H       H     H
|-----------|-------------||
|-----------|-------------||
|-7---------|-12----11----||
|-7----8----|-12----11----||
|-5----8----|-10-----9----||
|------6----|-------------||
|
| Gtr II
| H    H       H     H
|-----------|-------------||
|-----------|-------------||
|-7---------|-12----11----||
|-7----8----|-12----11----||
|-5----8----|-10-----9----||
|------6----|-------------||


 Guitar Solo 2
          G#5 G5          G5             G#5 G5          G#5
  PM--|           PM--|          PM--|           PM--|
  E   E   E   E   E   E   Q      E   E   E   E   E   E   Q
|------------------------------|------------------------------|
|------------------------------|------------------------------|
|------------------------------|------------------------------|
|---------6S==5-----------5----|---------6S==5-----------6----|
|---------6S==5-----------5----|---------6S==5-----------6----|
|-0---0---4S==3---0---0---3----|-0---0---4S==3---0---0---4----|
|
|                                                        \1/
| S S S S S S S S S S S S Q      S S S S S S S S S S S S Q
|------------------------------|------------------------------|
|------------------------------|------------------------------|
|-0-2-0-2-0-2-0-2-0-2-0-2-4b6--|-0-2-0-2-0-2-0-2-0-2-0-2-0----|
|------------------------------|------------------------------|
|------------------------------|------------------------------|
|------------------------------|------------------------------|


             G#5   G5              G5
   PM---|                PM---|
   E    E     E    E     E    E     Q
|---------------------------------------------|
|---------------------------------------------|
|---------------------------------------------|
|-------------6S===5----------------5---------|
|-------------6S===5----------------5---------|
|--0----0-----4S===3-----0----0-----3---------|
|
|  |---3---|  |---3---|  |---3---|  |--3--|
|  E  E    E  E  E    E  E  E    E  E  E  E
|-21-18---20-21-18---21-18-20---21-18-21-18---|
|---------------------------------------------|
|---------------------------------------------|
|---------------------------------------------|
|---------------------------------------------|
|---------------------------------------------|


             G#5   G5              G5
   PM---|                PM---|
   E    E     E    E     E    E     Q
|----------------------------------------|
|----------------------------------------|
|----------------------------------------|
|-------------6S===5----------------5----|
|-------------6S===5----------------5----|
|--0----0-----4S===3-----0----0-----3----|
|
|  |---3---|  |---3---|  |---3---|  |3-|
|  E  E    E  E  E    E  E  E    E  E  Q
|-20-21---19-22-23---19-22-24---19-22-24-|
|----------------------------------------|
|----------------------------------------|
|----------------------------------------|
|----------------------------------------|
|----------------------------------------|


          G#G5       G5         G#G5          G#5
   PM---|      PM--|      PM--|      PM-|
   E    E E E  E   E Q    E   E E E  E  E     Q
|-----------------------|----------------------------|
|-----------------------|----------------------------|
|-----------------------|----------------------------|
|---------6S5--------5--|-------6S5-----------6------|
|---------6S5--------5--|-------6S5-----------6------|
|--0----0-4S3--0---0-3--|-0---0-4S3--0--0-----4------|
|
|              \1/                               \1/
|                                    ~~~
|  H           H          H          E.    E.    E
|-24b26-------24--------|----------------------------|
|-----------------------|----------------------------|
|-----------------------|-5b7-------13----13----13---|
|-----------------------|----------------------------|
|-----------------------|----------------------------|
|-----------------------|----------------------------|


            G#5  G5            G5                  G#5 G5          Bb5
   PM--|              PM---|               PM--|           PM--|
   E    E    E    E   E    E    Q          E   E   E   E   E   E   Q
|----------------------------------------|--------------------------------|
|----------------------------------------|--------------------------------|
|----------------------------------------|-------------------------3------|
|------------6S===5-------------5--------|---------6S==5-----------3------|
|------------6S===5-------------5--------|---------6S==5-----------1------|
|--0----0----4S===3---0----0----3--------|-0---0---4S==3---0---0----------|
|
|  T    T    T    T      T      T      T
|  S S  S S  S S  S S S  S S S  S S S  S   S S S S S S S S S S S S S S E
|----------------------------------------|--------------------------------|
|----------------------------------------|--------------------------------|
|-13-6-13-6-11-6-12-7-5-12-7-5-11-6-4-10-|-6-4-9-5-3-8-4-2-7-3-1-6-3-1-0--|
|----------------------------------------|--------------------------------|
|----------------------------------------|--------------------------------|
|----------------------------------------|--------------------------------|


       G#G5    G5            G#5 G5          G#5
   PM|     PM|       PM--|           PM--|
   E E E E E E Q     E   E   E   E   E   E   Q
|------------------|------------------------------|
|------------------|------------------------------|
|------------------|------------------------------|
|------6S5-----5---|---------6S==5-----------6----|
|------6S5-----5---|---------6S==5-----------6----|
|--0-0-4S3-0-0-3---|-0---0---4S==3---0---0---4----|
|
|  Q   Q   E E E E   S S S S S S S S S S S S S E.
|------------------|------------------------------|
|------------------|------------------------------|
|------------------|------------------------------|
|------------------|------------------------------|
|------------------|------------------------------|
|-15S==2---2-4-2-4-|-2-4-2-4-2-4-2-4-2-4-2-4-2-4S=|


          G#5 G5          G5                G#5 G5          G5
  PM--|           PM--|             PM--|           PM--|
  E   E   E   E   E   E   Q         E   E   E   E   E   E   Q
|---------------------------------|---------------------------------|
|---------------------------------|---------------------------------|
|---------------------------------|---------------------------------|
|---------6S==5-----------5-------|---------6S==5-----------5-------|
|---------6S==5-----------5-------|---------6S==5-----------5-------|
|-0---0---4S==3---0---0---3-------|-0---0---4S==3---0---0---3-------|
|
| S S S S S S S S S S S S S S S S   S S S S S S S S S S S S S S S S
|---------------------------------|---------------------------------|
|---------------------------------|---------------------------------|
|---------------------------------|---------------------------------|
|---------------------------------|---------------------------------|
|---------------------------------|---------------------------------|
|-3-5-3-5-3-5-3-5-3-5-3-5-3-5-3-5-|-7-5-7-5-7-5-7-5-7-5-7-5-7-5-7-5-|


          G#5 G5              G5
  PM--|            PM---|
  E   E   E   E    E     E     Q
|--------------------------------------|
|--------------------------------------|
|--------------------------------------|
|---------6S==5----------------5-------|
|---------6S==5----------------5-------|
|-0---0---4S==3----0-----0-----3-------|
|
|                              |--3--|
| S S S S S S S S  S  S  S  S  E  E  E
|--------------------------------------|
|--------------------------------------|
|-----------------15-12-14-15-11-12-14-|
|--------------------------------------|
|--------------------------------------|
|-7-9-7-9-7-9-7-9----------------------|


             G#5   G5              G#5
   PM---|                PM---|
   E    E     E    E     E    E     Q
|-------------------------------------------|
|-------------------------------------------|
|-------------------------------------------|
|-------------6S===5----------------6-------|
|-------------6S===5----------------6-------|
|--0----0-----4S===3-----0----0-----4-------|
|
|  |---3---|  |---3---|  |---3---|  |--3--|
|  E  E    E  E  E    E  E  E    E  E  E  E
|-------------------------------------------|
|-------------------------------------------|
|-11-12---14-10-11---13-10-11---13-10-11-13-|
|-------------------------------------------|
|-------------------------------------------|
|-------------------------------------------|


             G#5  G5             G5                  G#5 G5            Bb5
   PM---|              PM---|              PM---|             PM--|
   E    E    E    E    E    E    Q         E    E    E   E    E   E    Q
|----------------------------------------|-----------------------------------|
|----------------------------------------|-----------------------------------|
|----------------------------------------|-----------------------------3-----|
|------------6S===5--------------5-------|-----------6S==5-------------3-----|
|------------6S===5--------------5-------|-----------6S==5-------------1-----|
|--0----0----4S===3----0----0----3-------|-0----0----4S==3----0---0----------|
|
|  |---3---| |---3---| |---3---| |--3--|   |---3---| |--3---| |--3---| |-3-|
|  E  E    E E  E    E E  E    E E  E  E   E  E    E E E    E E E    E E E E
|----------------------------------------|-----------------------------------|
|----------------------------------------|-----------------------------------|
|-10-11---13-9-10---12-9-10---12-9-10-12-|-9-10---12-8-9---11-7-8---10-6-7-9-|
|----------------------------------------|-----------------------------------|
|----------------------------------------|-----------------------------------|
|----------------------------------------|-----------------------------------|


          G#5 G5          G5              G#5 G5          G#5
  PM--|           PM--|               PM|         PM--|
  E   E   E   E   E   E   Q           E E E   E   E   E   Q
|-----------------------------------|------------------------------|
|-----------------------------------|------------------------------|
|-----------------------------------|------------------------------|
|---------6S==5-----------5---------|-----6S==5-----------6--------|
|---------6S==5-----------5---------|-----6S==5-----------6--------|
|-0---0---4S==3---0---0---3---------|-0-0-4S==3---0---0---4--------|
|
|                                     ~~~~~~~~~~~~~~~~~~~~~~~~~~~~
| |--3--| |--3--| |--3--| |---5---|
| E E   E E E   E E E   E S S S S S   Q   S S S S S S S S S S S S
|-----------------------------------|------------------------------|
|-----------------------------------|------------------------------|
|-5-6---8-4-5---7-3-4---6-2-3-5-4-2-|------------------------------|
|-----------------------------------|-0---3p0h3p0h3p0h3p0h3p0h3p0--|
|-----------------------------------|------------------------------|
|-----------------------------------|------------------------------|


              G#5   G5                G5                    G#G5       G#5
   PM---|                  PM---|                    PM---|       PM-|
   E     E     E     E     E     E     Q             E    E E E   E  E Q
|-------------------------------------------------|-----------------------|
|-------------------------------------------------|-----------------------|
|-------------------------------------------------|-----------------------|
|--------------6S====5-----------------5----------|---------6S5--------6--|
|--------------6S====5-----------------5----------|---------6S5--------6--|
|--0-----0-----4S====3-----0-----0-----3----------|--0----0-4S3---0--0-4--|
|
|  S  S  S  S  S  S  S  S  S  S  S  S  S  S  S  S    H           +H
|-12h15p12h14p12h15p12h14p12h15p12h14p12h15p12h14-|-21b23-------(21)------|
|-------------------------------------------------|-----------------------|
|-------------------------------------------------|-----------------------|
|-------------------------------------------------|-----------------------|
|-------------------------------------------------|-----------------------|
|-------------------------------------------------|-----------------------|


  E5
  Gtrs I, II
  E Q.   E Q.     E Q.   E Q.     E Q.   E Q.     E Q.   E Q.
|---------------|---------------|---------------|---------------|
|---------------|---------------|---------------|---------------|
|---------------|---------------|---------------|---------------|
|-2------2------|-2------2------|-2------2------|-2------2------|
|-2------2------|-2------2------|-2------2------|-2------2------|
|-0------0------|-0------0------|-0------0------|-0------0------|


                        B5                          Bb5
  Gtr I
                  PM--|                       PM--|
   |-3--| |-3-|                |-3--| |-3-|
   E  E E E E E   E   E Q      E  E E E E E   E   E Q
|--------------------------|---------------------------|
|--------------------------|---------------------------|
|-----------------------4--|------------------------3--|
|-----------------------4--|------------------------3--|
|-----------------------2--|------------------------1--|
|--2h=3h5-2h3h5---0---0----|---2h=3h5-2h3h5---0---0----|
|
| Gtr II
|  \6/            \6/          \6/            \6/
|  H             +H           +H             +H
|-24------------(24)-------|-(24)-----------(24)-------|
|--------------------------|---------------------------|
|--------------------------|---------------------------|
|--------------------------|---------------------------|
|--------------------------|---------------------------|
|--------------------------|---------------------------|


                               D.S.S. al Dbl. Coda
                      B5                        Eb5
                PM--|                     PM--|
  |-3--| |-3-|              |-3--| |-3-|
  E  E E E E E  E   E Q     E  E E E E E  E   E Q
|------------------------|--------------------------||
|------------------------|--------------------------||
|---------------------4--|----------------------8---||
|---------------------4--|----------------------8---||
|---------------------2--|----------------------6---||
|-2h=3h5-2h3h5--0---0----|--2h=3h5-2h3h5--0---0-----||
|
| \6/           \6/         \6/           \6/
| H            +H          +H            +H
|------------------------|--------------------------||
|------------------------|--------------------------||
|------------------------|--------------------------||
|------------------------|--------------------------||
|------------------------|--------------------------||
|-0------------(0)-------|-(0)-----------(0)--------||


 Outro
  &&
          E5EbG5 F#5          C#C5G#G5          E5EbG5 F#5  N.C.
  Gtrs I, II
  PM----|             PM----|           PM----|
  E E E E E E  E  E   E E E E E E E E   E E E E E E  E  E   E E E E E E Q
|-------------------|-----------------|-------------------|----------------|
|-------------------|-----------------|-------------------|----------------|
|---------9S8-12S11-|---------6S5-----|---------9S8-12S11-|----------------|
|---------9S8-12S11-|---------6S5-6S5-|---------9S8-12S11-|---------9-8-7--|
|---------7S6-10S=9-|---------4S3-6S5-|---------7S6-10S=9-|-7-----7--------|
|-0-0-0-0-----------|-0-0-0-0-----4S3-|-0-0-0-0-----------|---8-7----------|


          E5EbG5 F#5          C#C5G#G5
  PM----|             PM----|
  E E E E E E  E  E   E E E E E E E E
|-------------------|-----------------|
|-------------------|-----------------|
|---------9S8-12S11-|---------6S5-----|
|---------9S8-12S11-|---------6S5-6S5-|
|---------7S6-10S=9-|---------4S3-6S5-|
|-0-0-0-0-----------|-0-0-0-0-----4S3-|


          E5EbG5 F#5  N.C.              E5
  PM----|             PM----|
  E E E E E E  E  E   E E E E E E E E   E E H.
|-------------------|-----------------|-----------*|
|-------------------|-----------------|-----------*|
|---------9S8-12S11-|-----------------|-----------*|
|---------9S8-12S11-|-----------------|-2-2-------*|
|---------7S6-10S=9-|---------4-3-2---|-2-2-------*|
|-0-0-0-0-----------|-2-2-2-2-------3-|-0-0-------*|



Duration Legend
---------------
W - whole; H - half; Q - quarter; E - 8th; S - 16th; T - 32nd; X - 64th; a - acciaccatura
+ - note tied to previous; . - note dotted; .. - note double dotted
Uncapitalized letters represent notes that are staccato (1/2 duration)
Irregular groupings are notated above the duration line
Duration letters will always appear directly above the note/fret number it represents the
duration for.  Duration letters with no fret number below them represent rests.  Multi-
bar rests are notated in the form Wxn, where n is the number of bars to rest for.  Low
melody durations appear below the staff

Tablature Legend
----------------
 h   - hammer-on
 p   - pull-off
 b   - bend
 pb  - pre-bend
 r   - bend release (if no number after the r, then release immediately)
 /\  - slide into or out of (from/to "nowhere")
 s   - legato slide
 S   - shift slide
 - natural harmonic
[n]  - artificial harmonic
n(n) - tapped harmonic
 ~   - vibrato
 tr  - trill
 T   - tap
 TP  - trem. picking
 PM  - palm muting
\n/  - tremolo bar dip; n = amount to dip
 \n  - tremolo bar down
 n/  - tremolo bar up
/n\  - tremolo bar inverted dip
 =   - hold bend; also acts as connecting device for hammers/pulls
 <> - volume swell (louder/softer)
 x   - on rhythm slash represents muted slash
 o   - on rhythm slash represents single note slash

Misc Legend
-----------
 |  - bar
||  - double bar
||o - repeat start
o|| - repeat end
*|  - double bar (ending)
 :  - bar (freetime)
 $  - Segno
 &  - Coda
Tempo markers -  = BPM(8/16=s8/s16), where s8 = swing 8ths, s16 = swing 16ths





Comments


Popular Slayer tabs & chords
Dittohead Bass Tabs
Live Undead Bass Tabs
Necrophiliac Bass Tabs
Playing With Dolls Bass Tabs
Beauty Through Order Tabs
Criminally Insane Tabs
I Hate You 4 Tabs
Necrophobic Tabs
New Faith 2 Tabs
The Antichrist 1 Tabs


Song lyrics



↑ Back to top | Tablatures and chords are parodies/interpretations of the original songs. You may use it for private study, scholarship, research or language learning purposes only
© 2014 AZChords.com Contact us | Privacy policy | DMCA | Add/correct tabs | Request tabs | Top 50 tabs