» » »

Slayer, Aggressive Perfector Bass tabs (ver.2)

Artists:  A B C D E F G H I J K L M N O P Q R S T U V W X Y Z # 

Aggressive Perfector Bass tabs (ver.2)

Slayer Tabs
 Rating:
4/5 (4 votes)
Aggressive Perfector lessons Tabs too difficult? Try these video lessons and learn fast
1
                
AGGRESSIVE PERFECTOR (Bassline)
As recorded by Slayer
(From the 1983 Album LIVE UNDEAD)

	

Words and Music by Hanneman and King
Arranged by Hanneman and King

Gtr I (D G C F) - 'Araya'

 Intro
  Fast Rock Q=180   In Time Q=208
 4/4          2/4     4/4
  Gtr I
  Wx3          W       Wx3          H    E E S S E
|------------|------||------------|-----------------||
|------------|------||------------|-----------------||
|------------|------||------------|------5-7-7-7----||
|------------|------||------------|--------------0--||


    $
    E E E E E E E E   E E E E E E S S E
||------------------|--------------------||
||o-----------------|-------------------o||
||o-----------------|---------5-7-7-7---o||
||--0-0-0-0-0-0-0-0-|-0-0-0-0---------0--||


     1st and 2nd Verses
      E E E E E E E E   E E E E E E E E  4x
|-||------------------|------------------||
|-||o-----------------|-----------------o||
|-||o-----------------|-----------------o||
|-||--0-0-0-0-0-0-0-0-|-0-0-0-0-0-0-0-0--||


   Chorus
                                                                 To Coda
                                                                    |-3-|
    E E E E E E E E   E E E E E E E E   E E E E E E E E   E E E +E  Q Q Q
||------------------|-----------------|-----------------|------------------||
||o-----------------|-----------------|-----------------|-----------------o||
||o-2-2-2-0-2-2-2---|---------------0-|-2-2-2-0-2-2-2-2-|-3-3-3-(3)S8-7-5-o||
||----------------0-|-1-1-1-0-1-1-1---|-----------------|------------------||


 Guitar Break
                                       D.S. al Coda
  E Q.   H      W          W          H    E E S S E
|-------------|----------|----------|----------------||
|-------------|----------|----------|----------------||
|-------------|----------|----------|------5-7-7-7---||
|-0-----------|----------|----------|--------------0-||


   Interlude
                                                         1.
    &
    E E E E E E E E   E E E E  Q  Q     E E E E E E E E   E E E E E E E E
||------------------|-----------------|-----------------|-------------------||
||o-----------------|-------------6\--|-----------------|------------------o||
||o-0-0-0-0-0-0-0-0-|-----------------|-3-3-3-3-3-3-3-3-|-2-2-2-2-2-2-2-2--o||
||------------------|-4-4-4-4-/4------|-----------------|-------------------||


                  Breakdown
  2.
          |-3-|
  E E E E Q Q Q    E H..         E H..         E H.      E
|---------------||-------------|-------------|--------------|
|---------------||-------------|-------------|--------------|
|-2-2-2-2-3-3-3-||-2-----------|-2-----------|-2------------|
|---------------||-------------|-------------|-----------3--|


  E H..           S E E. S S E E E E   S E E. S S E E E E
|-------------||---------------------|----------------------||
|-------------||o--------------------|---------------------o||
|-2-----------||o-2-0-2--2-0-2-------|-2-0-2--2-0-2--------o||
|-------------||---------------3-2-3-|--------------3-2-3---||


 Guitar Solo Sections
  E E E E E E E E   E E E E E E E E   E E E E E E E E   E E E E E E E E
|-----------------|-----------------|-----------------|-----------------||
|-----------------|-----------------|-----------------|-----------------||
|-2-2-2-2-2-2-2-2-|-0-0-0-0-0-0-0-0-|-3-3-3-3-3-3-3-3-|-2-2-2-2-2-2-2-0-||
|-----------------|-----------------|-----------------|-----------------||


 Solo Switch
  E E E E E E E E   E E E E E E E E   E E E E E E E E   E E E E E E  Q
|-----------------|-----------------|-----------------|------------------||
|-----------------|-----------------|-----------------|------------------||
|-2-2-2-2-2-2-2-3-|-0-0-0-0-0-0-0-0-|-3-3-3-3-3-3-3-3-|-2-2-2-2-2-2-/7\--||
|-----------------|-----------------|-----------------|------------------||


 Solo Switch II
  E E E E E E E E   E E E E E E E E   E E E E E E E E   E E E E E E E E
|-----------------|-----------------|-----------------|-----------------||
|-----------------|-----------------|-----------------|-----------------||
|-2-2-2-2-2-2-2-2-|-0-0-0-0-0-0-0-0-|-3-3-3-3-3-3-3-3-|-2-2-2-2-0-2-2-0-||
|-----------------|-----------------|-----------------|-----------------||


 Solo Switch III
  E E E E E E E E   E E E E E E E E   E E E E E E E E   E E E E E E S S E
|-----------------|-----------------|-----------------|-------------------||
|-----------------|-----------------|-----------------|-------------------||
|-2-2-2-0-2-2-2-0-|-0-0-0-0-0-0-0-0-|-3-3-3-3-3-3-3-3-|-2-2-2-2-2-2-2-2-2-||
|-----------------|-----------------|-----------------|-------------------||


   Chorus III
                                                                    |-3-|
    E E E E E E E E   E E E E E E E E   E E E E E E E E   E E E +E  Q Q Q
||------------------|-----------------|-----------------|------------------||
||o-----------------|-----------------|-----------------|-----------------o||
||o-2-2-2-0-2-2-2---|---------------0-|-2-2-2-0-2-2-2-2-|-3-3-3-(3)S8-7-5-o||
||----------------0-|-1-1-1-0-1-1-1---|-----------------|------------------||


 Outro
                                                         1.,2.
  E E E E E E E E   E E E E E E E E     E E E E E E E E   E E E E E E E E  3x
|-----------------|-----------------||------------------|------------------||
|-----------------|-----------------||o-----------------|-----------------o||
|-7-------7-------|-7-----------7---||o-7-------7-------|-7---------------o||
|---0-0-0---0-0-0-|---0-0-0-0-0---0-||----0-0-0---0-0-0-|---0-0-0-0-0-0-0--||


  3.
  E E E E E E E E     E E E E E E E E   E E E E E E E E  3x
|-----------------||------------------|------------------||
|-----------------||o-----------------|-----------------o||
|-2-2-2-2-3-3-3-3-||o-----------------|-2-2-2-2-3-3-3-3-o||
|-----------------||--0-0-0-0-0-0-0-0-|------------------||


                      |-3-| |-3-|     |-3-| |-3-|
    E E E E E E E E   Q Q Q Q Q Q  4x Q Q Q Q Q Q   Q  +Q    H
||------------------|--------------||-------------|---------------*|
||o-----------------|-------------o||-------------|---------------*|
||o-----------------|-2-2-2-3-3-3-o||-3-3-3-3-3-3-|-7--(7)\-------*|
||--0-0-0-0-0-0-0-0-|--------------||-------------|---------------*|



Duration Legend
---------------
W - whole; H - half; Q - quarter; E - 8th; S - 16th; T - 32nd; X - 64th; a - acciaccatura
+ - note tied to previous; . - note dotted; .. - note double dotted
Uncapitalized letters represent notes that are staccato (1/2 duration)
Irregular groupings are notated above the duration line
Duration letters will always appear directly above the note/fret number it represents the
duration for.  Duration letters with no fret number below them represent rests.  Multi-
bar rests are notated in the form Wxn, where n is the number of bars to rest for.  Low
melody durations appear below the staff

Tablature Legend
----------------
 h   - hammer-on
 p   - pull-off
 b   - bend
 pb  - pre-bend
 r   - bend release (if no number after the r, then release immediately)
 /\  - slide into or out of (from/to "nowhere")
 s   - legato slide
 S   - shift slide
 - natural harmonic
[n]  - artificial harmonic
n(n) - tapped harmonic
 ~   - vibrato
 tr  - trill
 T   - tap
 TP  - trem. picking
 PM  - palm muting
\n/  - tremolo bar dip; n = amount to dip
 \n  - tremolo bar down
 n/  - tremolo bar up
/n\  - tremolo bar inverted dip
 =   - hold bend; also acts as connecting device for hammers/pulls
 <> - volume swell (louder/softer)
 x   - on rhythm slash represents muted slash
 o   - on rhythm slash represents single note slash

Misc Legend
-----------
 |  - bar
||  - double bar
||o - repeat start
o|| - repeat end
*|  - double bar (ending)
 :  - bar (freetime)
 $  - Segno
 &  - Coda
Tempo markers -  = BPM(8/16=s8/s16), where s8 = swing 8ths, s16 = swing 16ths
            
Submit corrections

comments powered by Disqus
↑ Back to top | Slayer Bass for Aggressive Perfector. Lyrics for acoustic guitar and electric guitar. 1 Tablatures and chords are parodies/interpretations of the original songs. You may use it for private study, scholarship, research or language learning purposes only