» » »

Slayer, Aggressive Perfector Tabs (ver.1)

Artists:  A B C D E F G H I J K L M N O P Q R S T U V W X Y Z # 

Aggressive Perfector Tabs (ver.1)

Slayer Tabs
Rating:
4/5 (3 votes)
Aggressive Perfector lessons Tabs too difficult? Try these video lessons and learn fast
                Aggressive Perfector by Slayer
Reign in Blood 1986
This is the faster version of Aggressive Perfector from Reign in Blood
Notes:It is different from the version from Haunting the Chapel 100% perfect
tuning 1/2 step down
Intro/Verse
eb----------------------------------|only to
Bb----------------------------------|start the
Gb----------------------------------|song
Db----------------------------------|
Ab----------------------------------|
Eb/12-------------------------------|

eb-------------------------------------|
Bb-------------------------------------|
Gb-------------------------------------|
Db----12-11-----12-11-----12-11--------|
Ab----10\9------10\9------10\9--12-14--|
Eb000-------000-------000-------10/12--|
pm...     pm...     pm...

Chorus
eb----------------------------------|
Bb----------------------------------|
Gb----------------------------------|
Db-4-4-----4-4-5-10-9-7-------------|
Ab-2-2-3-3-2-2-3-8--7-5-------------|
Eb-----1-1--------------------------|

Bridge 1a
eb-----------------------|
Bb-----------------------|
Gb-----------------------|
Db-2---5-4--2---5-4-5----|
Ab-0-6-3-2--0-6-3-2-3----|
Eb---4--------4----------|

Bridge 1b
eb------------------|
Bb------------------|
Gb------------------|
Db------------------|
Ab-0-2-0-2----------|
Eb---------3-2-0----|
        pm . . .

Bridge 1c
eb-------------------|
Bb-------------------|
Gb-------------------|
Db-2-4-2-4-----------|
Ab-0-2-0-2-----------|
Eb---------3-2-0-----|
        pm . . .

Solo Fill 1
eb----------------------------------|
Bb----------------------------------|
Gb----------------------------------|
Db----------------------------------|
Ab-22222222000000003333333322222222-
Eb----------------------------------
 pm................................

Solo Fill 2
eb--------------------------------|
Bb--------------------------------|
Gb--------------------------------|
Db-------------9-----9-----9------|
Ab-------------7-----7-----7------|
Eb-00000000000---000---000--------|
 pm...........   ...   ...

Outro A
eb----------------------------------|
Bb----------------------------------|
Gb----------------------------------|
Db----------------------------------|
Ab-22223333-------------------------|
Eb---------00000000-----------------|
 pm................

Outro B
eb--------------------------|
Bb--------------------------|
Gb--------------------------|
Db-4-4-4-5-5-5--------------|
Ab-2-2-2-3-3-3--------------|
Eb-------------000000000000-|
             pm............

Outro C
eb----------------------------------|
Bb----------------------------------|
Gb----------------------------------|
Db-4-4-4-5-5-5-5-5-5-5-5-5-9--------|
Ab-2-2-2-3-3-3-3-3-3-3-3-3-7--------|
Eb----------------------------------|

Order of Song
Intro/Verse x8
Chorusx2
Intro/Versex8
Chorusx2
Bridge 1a x1
Bridge 1b x4
Bridge 1c x4
Solo Fill 1 x4
Chorusx2
Solo Fill 2 until solo ends
Outro Ax4
Outro Bx3
Outro Cx1
Thats the song hope you liked it

SLAYER
            

comments powered by Disqus
↑ Back to top | Slayer Tabs for Aggressive Perfector. Lyrics for acoustic guitar and electric guitar. Tablatures and chords are parodies/interpretations of the original songs. You may use it for private study, scholarship, research or language learning purposes only