>
 >
Aggressive Perfector 1

Aggressive Perfector 1 Guitar Tabs

Slayer - Aggressive Perfector 1 chords, tabs, tablatures, lyrics

Guitar lessons | Add/correct | Request | Top 50 tabs Artists:  A B C D E F G H I J K L M N O P Q R S T U V W X Y Z 0-9

Aggressive Perfector 1 Guitar Tabs – Slayer

CD, Sheet music, Poster

Do you like Aggressive Perfector 1? Share with your friends now
Bass TabsBass Tabs v2TabsTabs v2Tabs v3Tabs v4
Slayer - Aggressive Perfector (from: Haunting the Chapel)

Firstly, check out my other tabs if you get the chance, thanks!

The other version of this is good but I think I have perfected it & made the correct 
Here ya go! This is not the bonus track on “Reign In Blood”, It is from “Haunting the Chapel”!

Tablature Legend:
/     - Slide up
\     - Slide down
PM|-| - Palm-Mute
~     - Vibrato
?(?)  - Bend (to whatever is in the brackets)
P     - pull-off
h     - hammer-on
t     - tap

Intro:

Both Gtrs
e|------------------------------------------------------------------------------------|
B|------------------------------------------------------------------------------------|
G|------------------------------------------------------------------------------------|
D|------------------------------------------------------------------------------------|
A|-5-5-5-5-5-5-5-5-5-5-5-5-5-5-5-5-5-5-5-5-5-5-5-5-5-5-5-5-5-5-5-5--5--5--5-----------|
E|-3-3-3-3-3-3-3-3-3-3-3-3-3-3-3-3-3-3-3-3-3-3-3-3-3-3-3-3-3-3-3-3--3--3--3-----------|

e|------------------------------------------------------------------------------------|
B|------------------------------------------------------------------------------------|
G|------------------------------------------------------------------------------------|
D|------------------------------------------------------------------------------------|
A|-4-4-4-4-4-4-4-4-4-4-4-4-4-4-4-4-4-4-4-4-4-4-4-4-4-4-4-4-4-4-4-4--4--4--4-----------|
E|-2-2-2-2-2-2-2-2-2-2-2-2-2-2-2-2-2-2-2-2-2-2-2-2-2-2-2-2-2-2-2-2--2--2--2-----------|

  Gtr I
e|--------------------------------------------------------------------------------------|
B|--------------------------------------------------------------------------------------|
G|--------------------------------------------------------------------------------------|
D|--------------------------------------------------------------------------------------|
A|-4--4--4--4--2-2-2-2-2-2-2-2-2-2-2-2-2-2-2-2-2-2-2-2-2-2-2-2-2-2-2-2-2-2--2--2--2-----|
E|-2--2--2--2--0-0-0-0-0-0-0-0-0-0-0-0-0-0-0-0-0-0-0-0-0-0-0-0-0-0-0-0-0-0--0--0--0-----|
 |
 |Gtr II
e|--------------------------------------12-------12-12-12-12-12-12-12-12-12-12-12-12-12-|
B|--------------------------------------------------------------------------------------|
G|--------------------------------------------------------------------------------------|
D|--------------------------------------------------------------------------------------|
A|--------------------------------------------------------------------------------------|
E|--------------------------------------------------------------------------------------|

e|-12-12-12-12-12-12-12-12-12-12-12-12-12-12-12-12-12-12-12-12-12-12-12-12-12-12-12-12-|
B|-------------------------------------------------------------------------------------|
G|-------------------------------------------------------------------------------------|
D|-------------------------------------------------------------------------------------|
A|-------------------------------------------------------------------------------------|
E|-------------------------------------------------------------------------------------|

  Gtr I
e|------------------------------------------------------|
B|------------------------------------------------------|
G|------------------------------------------------------|
D|-----------12\11-------12\11-------12\11--7--9--9--9--|
A|-/5--------10\9--------10\9--------10\9---5--7--7--7--|
E|-----0-0-0-------0-0-0-------0-0-0--------------------|
 |
 |Gtr II
e|-12-12-12-12-12-12-12-12-12-12-12-12-12-12-12-12-12-12-|
B|-------------------------------------------------------|
G|-------------------------------------------------------|
D|-------------------------------------------------------|
A|-------------------------------------------------------|
E|-------------------------------------------------------|

  Gtr I
e|--------------------------------------------------|
B|--------------------------------------------------|
G|--------------------------------------------------|
D|-------12\11-------12\11-------12\11--7--9--9--9--|
A|-------10\9--------10\9--------10\9---5--7--7--7--|
E|-0-0-0-------0-0-0-------0-0-0--------------------|
 |
 |Gtr II
e|-12-12-12-12-12-12-12-12-12-12-12-12-12-12-12-12-12-12/-19-\-|
B|-------------------------------------------------------------|
G|-------------------------------------------------------------|
D|-------------------------------------------------------------|
A|-------------------------------------------------------------|
E|-------------------------------------------------------------|

Verse:

Both Gtrs                                        (x6)
e|--------------------------------------------------|
B|--------------------------------------------------|
G|--------------------------------------------------|
D|-------12\11-------12\11-------12\11--7--9--9--9--|
A|-------10\9--------10\9--------10\9---5--7--7--7--|
E|-0-0-0-------0-0-0-------0-0-0--------------------|

Chorus:

Both Gtrs                               (x2)
|------------------------------------------|
|------------------------------------------|
|-----------------------------------5-4----|
|-4-----4-------------4-----4---5---3-2-5--|
|-2--0--2---3-----3---2--0--2---3-------3--|
|-----------1--0--1------------------------|

Verse:

Both Gtrs                                        (x8)
e|--------------------------------------------------|
B|--------------------------------------------------|
G|--------------------------------------------------|
D|-------12\11-------12\11-------12\11--7--9--9--9--|
A|-------10\9--------10\9--------10\9---5--7--7--7--|
E|-0-0-0-------0-0-0-------0-0-0--------------------|

Chorus:

Both Gtrs                                (x2)
e|------------------------------------------|
B|------------------------------------------|
G|-----------------------------------5-4----|
D|-4-----4-------------4-----4---5---3-2-5--|
A|-2--0--2---3-----3---2--0--2---3-------3--|
E|-----------1--0--1------------------------|

Bridge:

Both Gtrs
e|-----------------------------------------------------|
B|-----------------------------------------------------|
G|-----------------------------------------------------|
D|-----------------------------------------------------|
A|-7-----6-----10----9-------7-----6-----10-----9--10--|
E|-5-----4-----8-----7-------5-----4-----8------7--8---|

Pre-Solo:
Both Gtrs                                                        (x2)
e|------------------------------------------------------------------|
B|------------------------------------------------------------------|
G|------------------------------------------------------------------|
D|------------------------------------------------------------------|
A|-2p0—2p0-2-------2p0—2p0-2-------2p0—2p0-2-------2p0—2p0-2--------|
E|-----------3-2-0-----------3-2-0-----------3-2-0-----------3-2-0--|

Solo:

  Gtr I
e|-0-3p2p0-3p2p0-3p2p0-5p3p0-5p3p0-5p3p0-7p5p0-7p5p0-7p5p0-9p7p0-9p7p0-9p7p0-9/15-|
B|--------------------------------------------------------------------------------|
G|--------------------------------------------------------------------------------|
D|--------------------------------------------------------------------------------|
A|--------------------------------------------------------------------------------|
E|--------------------------------------------------------------------------------|
 |
 |Gtr II
e|-----------------------------------|
B|-----------------------------------|
G|-----------------------------------|
D|-4---------------2-----------------|
A|-2-2-2-2-2-2-2-2-0-0-0-0-0-0-0-0---|
E|-----------------------------------|
PM|----------------------------------|

  Gtr I
e|-14-15-17-15-14--------------------------------------------|
B|----------------17-15-14-17-15-14--------------------------|
G|----------------------------------17-15-14-16~~--17(19)~~--|
D|-----------------------------------------------------------|
A|-----------------------------------------------------------|
E|-----------------------------------------------------------|
 |
 |Gtr II
e|-----------------------------------|
B|-----------------------------------|
G|-----------------------------------|
D|-5---------------4-----------------|
A|-3-3-3-3-3-3-3-3-2-2-2-2-2-2-2-2---|
E|-----------------------------------|
PM|----------------------------------|

  Gtr II
e|-19(19.5)----19(19.5)-19(19.5)-19(19.5)--21(22)--|
B|-------------------------------------------------|
G|-------------------------------------------------|
D|-------------------------------------------------|
A|-------------------------------------------------|
E|-------------------------------------------------|
 |
 |Gtr I
e|-----------------------------------|
B|-----------------------------------|
G|-----------------------------------|
D|-4---------------2-----------------|
A|-2-2-2-2-2-2-2-2-0-0-0-0-0-0-0-0---|
E|-----------------------------------|
PM|----------------------------------|

  Gtr II
e|-19-21-22-21-19-------------------------------------------|
B|----------------22-21-19-22-21-19----------------20(22)\--|
G|----------------------------------22-21-19-21-22----------|
D|----------------------------------------------------------|
A|----------------------------------------------------------|
E|----------------------------------------------------------|
 |
 |Gtr I
e|-----------------------------------|
B|-----------------------------------|
G|-----------------------------------|
D|-5---------------4-----------------|
A|-3-3-3-3-3-3-3-3-2-2-2-2-2-2-2-2---|
E|-----------------------------------|
PM|----------------------------------|

  Gtr I
e|-12-19t-15p12-19t-15p12-19t-15p12-19t-15p12-19t-15p12-19t-15p12-19t-15p12-19t-15p12-|
B|------------------------------------------------------------------------------------|
G|------------------------------------------------------------------------------------|
D|------------------------------------------------------------------------------------|
A|------------------------------------------------------------------------------------|
E|------------------------------------------------------------------------------------|

e|-19t-15p12-19t-15p12-19t-15p12-19t-15p12-12\-|
B|---------------------------------------------|
G|---------------------------------------------|
D|---------------------------------------------|
A|---------------------------------------------|
E|---------------------------------------------|
 |
 |Gtr II
e|-----------------------------------|
B|-----------------------------------|
G|-----------------------------------|
D|-4---------------2-----------------|
A|-2-2-2-2-2-2-2-2-0-0-0-0-0-0-0-0---|
E|-----------------------------------|
PM|----------------------------------|

  Gtr I
e|--------------------14-17-14-15-14-17-14-15-16-17-18-19-20-21-22-23-24\-|
B|-15-17-17(20)-----------------------------------------------------------|
G|------------------------------------------------------------------------|
D|------------------------------------------------------------------------|
A|------------------------------------------------------------------------|
E|------------------------------------------------------------------------|
 |
 |Gtr II
e|-----------------------------------|
B|-----------------------------------|
G|-----------------------------------|
D|-5---------------4-----------------|
A|-3-3-3-3-3-3-3-3-2-2-2-2-2-2-2-2---|
E|-----------------------------------|
PM|----------------------------------|

  Gtr II
e|-19-22-19-21-19-22-19-21-19-22-19-21-19-22-19-21-19-22-19-21-19-22-19-21-19-22-19-21-|
B|-------------------------------------------------------------------------------------|
G|-------------------------------------------------------------------------------------|
D|-------------------------------------------------------------------------------------|
A|-------------------------------------------------------------------------------------|
E|-------------------------------------------------------------------------------------|
 |
 |Gtr I
e|---------------------------------------------------|
B|---------------------------------------------------|
G|---------------------------------------------------|
D|-4---------------2---------------5-----------------|
A|-2-2-2-2-2-2-2-2-0-0-0-0-0-0-0-0-3-3-3-3-3-3-3-3---|
E|---------------------------------------------------|
PM|--------------------------------------------------|

e|-22(24)(24)(24)(24)(24)(22)-------|
B|----------------------------22~\--|
G|----------------------------------|
D|----------------------------------|
A|----------------------------------|
E|----------------------------------|
 |
 |Gtr II
e|-------------------|
B|-------------------|
G|-------------------|
D|-4-----------------|
A|-2-2-2-2-2-2-2-2---|
E|-------------------|
PM|------------------|

Chorus:

Both Gtrs                                (x2)
e|------------------------------------------|
B|------------------------------------------|
G|-----------------------------------5-4----|
D|-4-----4-------------4-----4---5---3-2-5--|
A|-2--0--2---3-----3---2--0--2---3-------3--|
E|-----------1--0--1------------------------|

Outro:
                                  (x3)
e|-------------------------------------|
B|-------------------------------------|
G|-------------------------------------|
D|-9-------9-------9-------------------|
A|-7-------7-------7-------------------|
E|---0-0-0---0-0-0---0-0-0-0-0-0-0-0---|
PM  |-----| |-----| |------------------|

e|-------------------|
B|-------------------|
G|-------------------|
D|-9-------9---------|
A|-7-------7---------|
E|---0-0-0---0-0-0---|
PM  |-----| |--------|

                                          (x7)
e|---------------------------------------------|
B|---------------------------------------------|
G|---------------------------------------------|
D|-4-4-4--5-5-5--------------------------------|
A|-2-2-2--3-3-3--2-----------------------------|
E|---------------0-0-0-0--0-0-0--0-0-0-0-0-0---|
PM              |------------------------------|

e|-----------------------------------|
B|-----------------------------------|
G|-----------------------------------|
D|-4-4-4--5-5-5-5-5-5-5-5-5-5-5-5-9--|
A|-2-2-2--3-3-3-3-3-3-3-3-3-3-3-3-7--|
E|-----------------------------------|

Enjoy!





Comments


Popular Slayer tabs & chords
Altar Of Sacrifice Bass Tabs
Fight Till Death Bass Tabs
Overt Ememy Bass Tabs
Criminally Insane Drum Tabs
Born Of Fire Tabs
Chemical Warfare 2 Tabs
Face The Slayer Tabs
Playing With Dolls Intro Tabs
Simple Aggression Tabs
South Of Heaven Tabs


Song lyrics



↑ Back to top | Tablatures and chords are parodies/interpretations of the original songs. You may use it for private study, scholarship, research or language learning purposes only
© 2014 AZChords.com Contact us | Privacy policy | DMCA | Add/correct tabs | Request tabs | Top 50 tabs