>
 >
Summer Song 2

Summer Song 2 Guitar Tabs

Silent Sanctuary - Summer Song 2 chords, tabs, tablatures, lyrics

Guitar lessons | Add/correct | Request | Top 50 tabs Artists:  A B C D E F G H I J K L M N O P Q R S T U V W X Y Z 0-9

Summer Song 2 Guitar Tabs – Silent Sanctuary

CD, Sheet music, Poster

Do you like Summer Song 2? Share with your friends now
Bass TabsChordsChords v2TabsTabs v2Tabs v3Tabs v4Ukulele
INTRO:A-D-Bm-D ( 4x)

e|------5---5/7------5/7---------------------------|
b|--------------5-------5/7----2/3-------5/7-------|
g|------6------------------6--------------------6/7|
d|------7---------0----------------0---------------|
a|---------------------------2---------------------|
e|-------------------------------------------------|


e|------5---5/7------5/7---------------------------|
b|--------------5-------5/7------------------------|
g|------6------------------6---6--7--9-------------|
d|------7---------0------------0--0--0-------------|
a|-------------------------------------------------|
e|-------------------------------------------------|


Verse 1:
 
 A      D           Bm  
  Magkatabi tayo sa duyan
 D
  Sa ilalim ng buwan
 A         D        Bm
  Buhangin sa ating mga paa
 D             A       D  Bm D
  Ang dagat ay kumakanta


Verse 2:
 
 A         D             Bm
  Matagal naring magkakilala
 D
  Minahal na kita
 A                   D
  Simula pa nung una
                    Bm          D
  Unang makita ang iyong mga mata


Refrain:
 
  C#m7      F#m7      D
  Sana ay huwag ng matapos tong
      C#m7 F#m7             Bm7      E
  Pag-ibig  na  para lamang sa iyo  woohh...


Chorus:
              A                  D        Bm 
  (Gusto kong) Tumalon, tumalon sa saya dahil
        D     
  Ikaw ang kapiling
 A                    D     Bm       
  Sa iyo, sa iyo, sa iyo lamang
       D  
  Ang puso ko
 A                     D       Bm
  Sumayaw, sumayaw, sumayaw, tayo
       D         A-D   Bm        D
  Sa ilalim ng araw  (ng araw)  ah ah 


Verse 3:yung astig na reggae
  
           A
  Tuwing ika'y nalulungkot
  D                            Bm
  Nandito lang ako pangako ko sa’yo
          D
  Hindi kita iiwan
  A           D      Bm      D
  Huwag kang mag-alala (huwag kang mag-alala)
  A                D           Bm           D
  Gusto mo ng beer ililibre kita (sige na, sige na, sige na)
  A                     D   
  Basta't ika'y kasama di ako nangangamba
  Bm                  D 
  Kislap ng yong mata tibok ng puso’y sumaya
  A               D     
  Ikaw lang ang aking mamahalin
 Bm            D              A    D
  Hanggang sa langit ikaw ay dadalhin
   Bm                D
  Tara na, tara na, tara na

Refrain:

  C#m7      F#m7      D
  Sana ay huwag ng matapos tong
      C#m7 F#m7             Bm7      E
  Pag-ibig  na  para lamang sa iyo  woohoowoohh...


Chorus:
              A                  D        Bm 
  (Gusto kong) Tumalon, tumalon sa saya dahil
        D     
  Ikaw ang kapiling
 A                    D     Bm       
  Sa iyo, sa iyo, sa iyo lamang
       D  
  Ang puso ko
 A                     D       Bm
  Sumayaw, sumayaw, sumayaw, tayo
       D         A-D-Bm-D
  Sa ilalim ng araw  


              A                  D        Bm 
  (Gusto kong) Tumalon, tumalon sa saya dahil
        D     
  Ikaw ang kapiling
 A                    D     Bm       
  Sa iyo, sa iyo, sa iyo lamang
       D  
  Ang puso ko
 A                     D       Bm
  Sumayaw, sumayaw, sumayaw, tayo
       D         A-D   Bm - D
  Sa ilalim ng araw  (ng araw)   


Interlude:  F#m-C#m (3x)
            F#m-D -E

Adlib: A-D-Bm-D (4x)

E|------------------------------------------------------|
B|------------------------------------------------------|
G|----------------9-------------------------------------|
D|-----7-9---9s11---11s9---7---9s7------7---------------|
A|-7h9------------------------------7s9----7s9----7-----|
E|------------------------------------------------------|

E|---------------------------------------------------------------|
B|---------------------------------------------------------------|
G|-11-10-9------------------------------------------9s11----9----|
D|---------12-----11--12--12s14----11------9s11--12--------------|
A|------------------------------------12-------------------------|
E|---------------------------------------------------------------|

E|-12-11-10-9---------------------------------------------------------|
B|-11---------12---14-13-12---10--9--9h10p9---10s12--10---------------|
G|---------------------------------------------9s11---9----------9----|
D|--------------------------------------------------------9h11--------|
A|--------------------------------------------------------------------|
E|--------------------------------------------------------------------|

E|-17p14----14----------------------------17----------------------|
B|-------17----17--14--12---14p12-----13^-----14^---12------------|
G|-----------------------------------------------------11----14---|
D|----------------------------------------------------------------|
A|----------------------------------------------------------------|
E|----------------------------------------------------------------|
 
 A      D           Bm  
  Magkatabi tayo sa duyan
 D
  Sa ilalim ng buwan
 A         D        Bm
  Buhangin sa ating mga paa
 D             A       D  D-A
  Ang dagat ay kumakanta


 A         D             Bm
  Matagal naring magkakilala
 D
  Minahal na kita
 A                   D
  Simula pa nung una
                    Bm          D
  Unang makita ang iyong mga mata

Refrain:
 
  C#m7      F#m7      D
  Sana ay huwag ng matapos tong
      C#m7 F#m7             Bm7      E
  Pag-ibig  na  para lamang sa iyo  woohh...





Comments


Popular Silent Sanctuary tabs & chords
Amakakeru Ryu No Hirameki Chords
Ingat Ka 1 Chords
Kismet Chords
Panaginip 1 Chords
Parol Chords
Tuyo Na'ng Damdamin Chords
14 1 Tabs
Summer Song 1 Tabs
For Tonight Ukulele
Paalam Ukulele


Song lyrics



↑ Back to top | Tablatures and chords are parodies/interpretations of the original songs. You may use it for private study, scholarship, research or language learning purposes only
© 2014 AZChords.com Contact us | Privacy policy | DMCA | Add/correct tabs | Request tabs | Top 50 tabs