» » »

Silent Sanctuary, Summer Song Tabs (ver.2)

Artists:  A B C D E F G H I J K L M N O P Q R S T U V W X Y Z # 

Summer Song Tabs (ver.2)

Silent Sanctuary Tabs
 Rating:
4.3/5 (6 votes)
Summer Song lessons Tabs too difficult? Try these video lessons and learn fast
                Band: Silent Sanctuary


Hi guyz!!! 3rd time ko na poh 2 and i was surprised no one tabbed it yet
so ginawako na lang2, Lead part 2 summer song yung bagong music video
ng silent sanctuary, marami kasing sancturians ang gus2 malaman 2 eh
kc daw cute!!! hehehe... Actually I know that marami ang namomoblema sa
intro ng kantang 2, dont worry guyz alam na alam ko yun, just give me
some time to finish it ok? kaya lang muna sa ngayun......

ok now about this song: I just got a little trouble d2 sa last part ng lead,
parang may isang mali pero try nyo lang buo 2 ng lead meron kc part na nag stastop yung 
eh kaya hiniwalay ko para mas klaro, i have no idea
if the mali part is right pero magkasingtunog sila eh.. kayu na lang
bahala jan, sabayan nyo na lang sa tugtug para mas maintindihan nyo...

                        ( PLEASE RATE MY TAB)

Legend:
        / - slide up
        \ - slide down
        ~ - vibrato
        S - Shift Slide
        b - bend

E:|--------------------------------------------------------|
B:|--------------------------------------------------------|
G:|----------------------9---------------------------------|
D:|---------7--9--9/-11-----7/-9-9\-7--9--7--6--7----------|
A:|--7S--9--------------------------------------7/-9-------|
E:|--------------------------------------------------------|

E:|--------------------------------------------------------|
B:|--------------------------------------------------------|
G:|--11--10--9-------------9--------------------9/-11--9~--|
D:|------------12--11--12-----10/-11----11--12-------------|
A:|----------------------------------12--------------------|
E:|--------------------------------------------------------|

E:|--9--12--11-10--9-------------------------------------------------------|
B:|-------------------12--14--12--11--10--9-9S--10/-12---------------------|
G:|-----------------------------------------------------9/-11--9-----------|
D:|---------------------------------------------------------------9S 11--9~|
A:|------------------------------------------------------------------------|
E:|------------------------------------------------------------------------|

E:|--16--14--12--14--12---------------------17---------------------|
B:|---------------------15--14--15--12--12b----14--12--------------|
G:|----------------------------------------------------13--14------|
D:|----------------------------------------------------------------|
A:|----------------------------------------------------------------|
E:|----------------------------------------------------------------|

    ********* GOOD MUSIC IS A GOOD MUSIC NO MATTER WHAT GENRE *********
            
Submit corrections

comments powered by Disqus
↑ Back to top | Silent Sanctuary Tabs for Summer Song. Lyrics for acoustic guitar and electric guitar. Tablatures and chords are parodies/interpretations of the original songs. You may use it for private study, scholarship, research or language learning purposes only