» » »

Summer Song Tabs (ver.3)

Artists:  A B C D E F G H I J K L M N O P Q R S T U V W X Y Z # 

Summer Song Tabs (ver.3)

Silent Sanctuary
Rating:
0/5 (0 votes)

Hard to play? Try these video lessons and learn fast.
                hi..ewan ko kung tama to..pero sabi ng tenga ko, tama raw.,.hahaha..add nyo ko

Band: Silent Sanctuary

Intro:  A-D-Bm-D ( 4x)


E:|--5h7-5--5h7-5-------------------------------------------|
B:|-------5------5---5h5-5----------------------------------|
G:|--------------------------6h7-6---6h7-6-6h7-9-6----------|
D:|--------0-----------------------0------------------------|
A:|-0-------------------------------------------------------|
E:|-------------------------7-------------------------------|


E:|--5h7-5--5h7-5----------------2---------------------------|
B:|-------5------5---5h5-5---22--3---------------------------|
G:|--------------------------22--2---------------------------|2x
D:|--------0-----------------22--0---------------------------|
A:|-0------------------------00------------------------------|
E:|----------------------------------------------------------|


Verse 1:

 A      D           Bm
  Magkatabi tayo sa duyan
 D
  Sa ilalim ng buwan
 A         D        Bm
  Buhangin sa ating mga paa
 D             A       D  Bm D
  Ang dagat ay kumakanta


Verse 2:

 A         D             Bm
  Matagal naring magkakilala
 D
  Minahal na kita
 A                   D
  Simula pa nung una
                    Bm          D
  Unang makita ang iyong mga mata


Refrain:

  C#m7      F#m7      D
  Sana ay huwag ng matapos tong
      C#m7 F#m7             Bm7      E
  Pag-ibig  na  para lamang sa iyo  woohh...


Chorus:
              A                  D        Bm
  (Gusto kong) Tumalon, tumalon sa saya dahil
        D
  Ikaw ang kapiling
 A                    D     Bm
  Sa iyo, sa iyo, sa iyo lamang
       D
  Ang puso ko
 A                     D       Bm
  Sumayaw, sumayaw, sumayaw, tayo
       D         A-D   Bm        D
  Sa ilalim ng araw  (ng araw)  ah ah


Verse 3: (Hip-hop reggae Mode d2..heheh)

           A
  Tuwing ika’y nalulungkot
  D                            Bm
  Nandito lang ako pangako ko sa’yo
          D
  Hindi kita iiwan
  A           D      Bm      D
  Huwag kang mag-alala (huwag kang mag-alala)
  A                D           Bm           D
  Gusto mo ng beer ililibre kita (sige na, sige na, sige na)
  A                     D
  Basta’t ika’y kasama di ako nangangamba
  Bm                  D
  Kislap ng yong mata tibok ng puso’y sumaya
  A               D
  Ikaw lang ang aking mamahalin
 Bm            D              A    D
  Hanggang sa langit ikaw ay dadalhin
   Bm                D
  Tara na, tara na, tara na

Refrain:

  C#m7      F#m7      D
  Sana ay huwag ng matapos tong
      C#m7 F#m7             Bm7      E
  Pag-ibig  na  para lamang sa iyo  woohoowoohh...


Chorus:
              A                  D        Bm
  (Gusto kong) Tumalon, tumalon sa saya dahil
        D
  Ikaw ang kapiling
 A                    D     Bm
  Sa iyo, sa iyo, sa iyo lamang
       D
  Ang puso ko
 A                     D       Bm
  Sumayaw, sumayaw, sumayaw, tayo
       D         A-D-Bm-D
  Sa ilalim ng araw


              A                  D        Bm
  (Gusto kong) Tumalon, tumalon sa saya dahil
        D
  Ikaw ang kapiling
 A                    D     Bm
  Sa iyo, sa iyo, sa iyo lamang
       D
  Ang puso ko
 A                     D       Bm
  Sumayaw, sumayaw, sumayaw, tayo
       D         A-D   Bm - D
  Sa ilalim ng araw  (ng araw)


Interlude:  F#m-C#m (3x)
            F#m-D -E

Adlib: A-D-Bm-D (4x)
(may mga mali d2 sa adlib..kaya pagpasensyahan nyo na..hahahahah)
E:|------------------------------------------------------|
B:|------------------------------17------15-14-15-17-----|
G:|---11-14---14-14-17s18----14----16--18----------------|
D:|-11---------------------14--14------------------------|
A:|------------------------------------------------------|
E:|------------------------------------------------------|


E:|------------------------------------------------------------------------|
B:|------------------------------------------------------------------------|
G:|16s18-16-14------------14-14-11-14-16s18--------------------------------|
D:|-----------16-14--14----------------------------------------------------|
A:|----------------16-----------------------16s14-12--12-16-14-16-12-14s16-|
E:|-------------------------------------------------14---------------------|

E:|------------------------------------------------------------|
B:|------------18-20-18--14-15s12-12-14-12-14-15-17-14---------|
G:|---14--14-16------------------------------------------------|
D:|-14--14-----------------------------------------------------|
A:|------------------------------------------------------------|
E:|------------------------------------------------------------|
(may mga mali d2 sa adlib..kaya pagpasensyahan nyo na..hahahahah)

 A      D           Bm
  Magkatabi tayo sa duyan
 D
  Sa ilalim ng buwan
 A         D        Bm
  Buhangin sa ating mga paa
 D             A       D  D-A
  Ang dagat ay kumakanta


 A         D             Bm
  Matagal naring magkakilala
 D
  Minahal na kita
 A                   D
  Simula pa nung una
                    Bm          D
  Unang makita ang iyong mga mata

Refrain:

  C#m7      F#m7      D
  Sana ay huwag ng matapos tong
      C#m7 F#m7             Bm7      E
  Pag-ibig  na  para lamang sa iyo  woohh...


(Repeat Chorus 4x
            
Hard to play? Try these video lessons and learn fast. | Correct




comments powered by Disqus
↑ Back to top | Tablatures and chords are parodies/interpretations of the original songs. You may use it for private study, scholarship, research or language learning purposes only