» » »

Silent Sanctuary, Kismet Tabs (ver.3)

Artists:  A B C D E F G H I J K L M N O P Q R S T U V W X Y Z # 

Kismet Tabs (ver.3)

Silent Sanctuary Tabs
 Rating:
4/5 (4 votes)
Kismet lessons Tabs too difficult? Try these video lessons and learn fast
                Kismet by Silent Sanctuary
Standard Tuning

 try this .. no chords .. just put your finger to the frets, . this is my first tab to 
this site :-D
and this is for xheero hehe

Intro:
E|------------------------------------------------------------------------|
b|--0--3--5--3--3--3--5--3--3--5--3----0----------------------------------|
g|-----------------------------------2----2-0-----------------------------|
d|---------------------------------------------0--------------------------|
a|------------------------------------------------------------------------|
e|------------------------------------------------------------------------|

E|------------------------------------------------------------------------|
b|--1--3--1--3--0--0--3--5--3--5--3--3--5--3-----0------------------------|
g|--------------------------------------------2-----2--0--0---------------|
d|------------------------------------------------------------------------|
a|------------------------------------------------------------------------|
e|------------------------------------------------------------------------|

Verse I:
E|------------------------------------------------------------------------|
b|--3--3--3--3--1--0-----------3--3--3--3--1--0---------------------------|
g|--------------------2--2--0--------------------2--0---------------------|
d|------------------------------------------------------------------------|
a|------------------------------------------------------------------------|
e|------------------------------------------------------------------------|

E|------------------------------------------------------------------------|
b|--3--3--3--3--1--0-----1--0-----------------1--0------------------------|
g|--------------------2--------2--2--0--0--0--------2--4------------------|
d|------------------------------------------------------------------------|
a|------------------------------------------------------------------------|
e|------------------------------------------------------------------------|

Chorus :
E|------------------------------------------------------------------------|
b|--------0--1--0-----------0--1--0-----------0--1--0-----------3--1--0---|
g|--0--2-----------2--0--0-----------2--0--0-----------2--0--0-----------2|
d|------------------------------------------------------------------------|
a|------------------------------------------------------------------------|
e|------------------------------------------------------------------------|

E|------------------------------------------------------------------------|
b|--3--3--1--0--------------------3--1--0--------0------------------------|
g|--------------2--0--0--0--0--0-----------0--2-----2--0--0--0--0--0-0----|
d|---------------------------------------------------------------------2-0|
a|------------------------------------------------------------------------|
e|------------------------------------------------------------------------|

Riff : Before the Verse II
E|-----------------5--3--3--5--3--5--7--5--5--3---------------------------|
b|--0--3--5--3--3---------------------------------------------------------|
g|------------------------------------------------------------------------|
d|------------------------------------------------------------------------|
a|------------------------------------------------------------------------|
e|------------------------------------------------------------------------|

E|-----------------------------5--3--3--5--3--5--7--5--5--3---------------|
b|--1--3--1--3--0--3--5--3--3---------------------------------------------|
g|------------------------------------------------------------------------|
d|------------------------------------------------------------------------|
a|------------------------------------------------------------------------|
e|------------------------------------------------------------------------|

Verse II
E|------------------------------------------------------------------------|
b|--3--0--1--0-----------0--3--3--1--1--1--0--------3--5--3--1--0--1--0---|
g|--------------2--0--2-----------------------2--0------------------------|
d|------------------------------------------------------------------------|
a|------------------------------------------------------------------------|
e|------------------------------------------------------------------------|

E|------------------------------------------------------------------------|
b|--------1--0-----------------1--0-----0---------------------------------|
g|--2--0--------2--2--0--0--0--------2------------------------------------|
d|------------------------------------------------------------------------|
a|------------------------------------------------------------------------|
e|------------------------------------------------------------------------|

Chorus :
E|------------------------------------------------------------------------|
b|--------0--1--0-----------0--1--0-----------0--1--0-----------3--1--0---|
g|--0--2-----------2--0--0-----------2--0--0-----------2--0--0-----------2|
d|------------------------------------------------------------------------|
a|------------------------------------------------------------------------|
e|------------------------------------------------------------------------|

E|------------------------------------------------------------------------|
b|--3--3--1--0--------------------3--1--0--------0------------------------|
g|--------------2--0--0--0--0--0-----------0--2-----2--0--0--0--0--0-0----|
d|---------------------------------------------------------------------2-0|
a|------------------------------------------------------------------------|
e|------------------------------------------------------------------------|

E|------------------------------------------------------------------------|
b|--3--3--1--0--------------------3--3s5--1-1s3---------------------------|
g|--------------2--0--0--0--0--0------------------------------------------|
d|------------------------------------------------------------------------|
a|------------------------------------------------------------------------|
e|------------------------------------------------------------------------|

E|------------------------------------------------------------------------|
b|--------0--1--0----------0--1--0----------0--1--0---------3--1--0-------|
g|--0--2----------2--0--0----------2--0--0----------2--0--0----------2-0-0|
d|------------------------------------------------------------------------|
a|------------------------------------------------------------------------|
e|------------------------------------------------------------------------|

      I hope you enjoy it :)
            
Submit corrections

comments powered by Disqus
↑ Back to top | Silent Sanctuary Tabs for Kismet. Lyrics for acoustic guitar and electric guitar. Tablatures and chords are parodies/interpretations of the original songs. You may use it for private study, scholarship, research or language learning purposes only