» » »

Silent Sanctuary, Kismet Tabs (ver.1)

Artists:  A B C D E F G H I J K L M N O P Q R S T U V W X Y Z # 

Kismet Tabs (ver.1)

Silent Sanctuary Tabs
 Rating:
3.8/5 (5 votes)
Kismet lessons Tabs too difficult? Try these video lessons and learn fast
                
Tuning: Standard

an acoustic version of it.
actually it is played in piano but piano and guitars are
related to each other so this is the guitar version,
i hope you'll like it.



Intro:

e|---------3--------------3---------------0----------------|
B|-3---3-----3--------3-------3---0---0-----0--------(1)---|
G|---0---0-----0--2-0---0---0-------0---0-----0----(0)-----|
D|-----------------------------------------------(2)-------|
A|----------------------------------------------3----------|
E|-3--------------3---------------0------------------------|


Verse:

e|---------3---------------3-------------0-------------0------|
B|-----3-----3---------3-----3-------0-----0-------------1----|
G|---0---0-----0-(2)-0----0----0---0---0-----0-----0-------0--|
D|-----------------------------------------------2------------|
A|---------------------------------------------3-----3--------|
E|-3--------------3--------------0----------------------------|
   didn't mean....granted........didn't mean...care....

e|---------3---------------3-------------0-------------0------|
B|-----3-----3---------3-----3-------0-----0-------------1----|
G|---0---0-----0-(2)-0----0----0---0---0-----0-----0-------0--|
D|-----------------------------------------------2------------|
A|---------------------------------------------3-----3--------|
E|-3--------------3--------------0----------------------------|
   didn't mean....once...........chance........with you...


Chorus:

e|---------3--------------3-------------0--------------------2------|
B|-----3-----3--------3-----3-------0-----0--------------3-----3----|
G|---0---0-----0----0---0-----0---0---0-----0------0---2---2-----2--|
D|-----------------------------------------------2---0--------------|
A|---------------------------------------------3--------------------|
E|-3--------------2--------------0----------------------------------|
   drive for......give buter.....I don't.......kismets a dance....

continuation of D.
e|---------3-------------2------|
B|-----3-----3-------3-----3----|
G|---2---2-----2---2---2-----2--|
D|-0-------------0--------------|
A|------------------------------|
E|------------------------------|
   ..............this...

e|---------3---------------3-------------0-------------0------|
B|-----3-----3---------3-----3-------0-----0-------------1----|
G|---0---0-----0-(2)-0----0----0---0---0-----0-----0-------0--|
D|-----------------------------------------------2------------|
A|---------------------------------------------3-----3--------|
E|-3--------------3--------------0----------------------------|
   time...........everything.....life..........just our......


RIFF: before the 2nd verse

e|---------3--------------3---------------0----------------|
B|-3---3-----3--------3-------3---0---0-----0--------(1)---|
G|---0---0-----0--2-0---0---0-------0---0-----0----(0)-----|
D|-----------------------------------------------(2)-------|
A|----------------------------------------------3----------|
E|-3--------------3---------------0------------------------|


Verse:

e|---------3---------------3-------------0-------------0------|
B|-----3-----3---------3-----3-------0-----0-------------1----|
G|---0---0-----0-(2)-0----0----0---0---0-----0-----0-------0--|
D|-----------------------------------------------2------------|
A|---------------------------------------------3-----3--------|
E|-3--------------3--------------0----------------------------|
   pride..........room...........on bended.....i cry........

e|---------3---------------3-------------0-------------0------|
B|-----3-----3---------3-----3-------0-----0-------------1----|
G|---0---0-----0-(2)-0----0----0---0---0-----0-----0-------0--|
D|-----------------------------------------------2------------|
A|---------------------------------------------3-----3--------|
E|-3--------------3--------------0----------------------------|
   your name......to know........i love you....please hear....


Chorus:

e|---------3--------------3-------------0--------------------2------|
B|-----3-----3--------3-----3-------0-----0--------------3-----3----|
G|---0---0-----0----0---0-----0---0---0-----0------0---2---2-----2--|
D|-----------------------------------------------2---0--------------|
A|---------------------------------------------3--------------------|
E|-3--------------2--------------0----------------------------------|
   drive for......give buter.....I don't.......kismets a dance....

continuation of D.
e|---------3-------------2------|
B|-----3-----3-------3-----3----|
G|---2---2-----2---2---2-----2--|
D|-0-------------0--------------|
A|------------------------------|
E|------------------------------|
   ..............this...

e|---------3---------------3-------------0-------------0------|
B|-----3-----3---------3-----3-------0-----0-------------1----|
G|---0---0-----0-(2)-0----0----0---0---0-----0-----0-------0--|
D|-----------------------------------------------2------------|
A|---------------------------------------------3-----3--------|
E|-3--------------3--------------0----------------------------|
   time...........everything.....life..........just our......





and that's it, i hope you'll enjoy my tab
kindly rate it if you appreciate. thanks
            
Submit corrections

comments powered by Disqus
↑ Back to top | Silent Sanctuary Tabs for Kismet. Lyrics for acoustic guitar and electric guitar. Tablatures and chords are parodies/interpretations of the original songs. You may use it for private study, scholarship, research or language learning purposes only