» » »

14 Tabs (ver.2)

Artists:  A B C D E F G H I J K L M N O P Q R S T U V W X Y Z # 

14 Tabs (ver.2)

Silent Sanctuary
Rating:
0/5 (0 votes)

Hard to play? Try these video lessons and learn fast.
                (Intro)
yun.. sure ako dito.. bale violin un.. kinonvert ko sa guitar..
mdali lang to.. kyoot p pkinggan..Ü

try ko nxt tym ung whole song..Ü

Intro of 14 by Silent Sanctuary

e-----------------------------------------------------------------------|
B-----------------------------------------------------------------------|
G-------3-2-----3-2-----3-2-------------3-2-----3-2-----3-2-------------|
D---3-5-----3-5-----3-5-----3-5-3-2-3-5-----3-5-----3-5-----3-5-3-2-3-5-|
A-----------------------------------------------------------------------|
E-----------------------------------------------------------------------|

e-----------------------------x-x-x-B---|
B-----------------------------x-x-x-R---|
G--3-2-----3-2-----3-2--------5-5-5-E---|
D------3-5-----3-5-----3-5-3--5-5-5-A---|
A-----------------------------3-3-3-K---|
E-----------------------------4-4-4-!!--|

mbagal lang xa.. tz ilet ring nyu n lang pra mas masustain ung tunog pra mas maganda..

parate nmn po.. plz.. sana mtanggap to..

weeh.. pra to sa aking beloved barkada (april, tseannah, thea, kim, mchu etc).. at banda 
ivy, thea, mich).. saka ke Fafalicious Pata (mich).. haha..XD

Silent Sanctuary d best!
            
Hard to play? Try these video lessons and learn fast. | Correct




comments powered by Disqus
↑ Back to top | Tablatures and chords are parodies/interpretations of the original songs. You may use it for private study, scholarship, research or language learning purposes only