» » »

Silent Sanctuary, 14 Bass tabs (ver.1)

Artists:  A B C D E F G H I J K L M N O P Q R S T U V W X Y Z # 

14 Bass tabs (ver.1)

Silent Sanctuary Tabs
Rating:
0/5 (0 votes)
14 lessons Tabs too difficult? Try these video lessons and learn fast
                1st time ko lng gumawa ng tabs XD

INTRO G F# E C Dx2
G|-0-0-0-0-0-0-0-0-------------------------------------------6-6-6-6-6-6-6-6-------|
D|----------------------4-4-4-4-4-4-4-4-2-2-2-2-2-2-2-2---------------------0-0-0--|
A|---------------------------------------------------------------------------------|
E|---------------------------------------------------------------------------------|

Verse1/2 :G E C D x2
G|-0-0-0-0-0-0-0-0---------------------6-6-6-6-6-6-6-6----------------------|
D|---------------------2-2-2-2-2-2-2-2---------------------0-0-0-0-0-0-0-0--|
A|--------------------------------------------------------------------------|
E|--------------------------------------------------------------------------|

Bridge1/2: E B G D E C A
G|---------------------4-4-4-4-4-4-4-4--------------------7-7-7-7-7-7-7-7-------------------6-6-6-6-6-6-6-6-----------------|
D|-2-2-2-2-2-2-2-2--------------------5-5-5-5-5-5-5-5--------------------2-2-2-2-2-2-2-2-------------------7-7-7-7-7-7-7-7--|
A|--------------------------------------------------------------------------------------------------------------------------|
E|--------------------------------------------------------------------------------------------------------------------------|

Chorus G F# E C Dx2
G|-0-0-0-0-0-0-0-0-------------------------------------------6-6-6-6-6-6-6-6-------|
D|----------------------4-4-4-4-4-4-4-4-2-2-2-2-2-2-2-2---------------------0-0-0--|
A|---------------------------------------------------------------------------------|
E|---------------------------------------------------------------------------------|

Verse 3: C A x3
G|-6-6-6-6-6-6-6-6----------------------------|
D|---------------------7-7-7-7-7-7-7-7--------|
A|--------------------------------------------|
E|--------------------------------------------|

Pre Chorus: E D Cx4
G|----------------------6-6-6-6-------------------|
D|-2-2-2-2-0-0-0-0------------2-2-2-2-------------|
A|---—--------------------------------------------|
E|------------------------------------------------|

ORDER:
•	Intro
•	Verse 1
•	Bridge 1
•	Chorus
•	Verse 2
•	Bridge 2
•	Chorus
•	Verse 3
•	Instrumental (Same As Chorus)
•	Chorus
•	Pre Chorus
•	Chorus
            
Submit corrections

comments powered by Disqus
↑ Back to top | Silent Sanctuary Bass for 14. Lyrics for acoustic guitar and electric guitar. Tablatures and chords are parodies/interpretations of the original songs. You may use it for private study, scholarship, research or language learning purposes only